Thousand Foot Krutch - When In Doubt Chords & Tabs

 

When In Doubt Chords & Tabs

Thousand Foot Krutch Chords & Tabs

Version: 4 Type: Tab 0 ratings
1 star 2 stars 3 stars 4 stars 5 stars
comments

When In Doubt Tab

This is My first tab, and it is 100% right. good song check it out.

/=slide
[ Tab from: http://www.guitartabs.cc/tabs/t/thousand_foot_krutch/when_in_doubt_tab_ver_4.html ]
e|------------------------------------------------------|
b|------------------------------------------------------|
g|------7-----------------------------------------------|
d|----7---7--------7------9-----------------------------|
a|--55-5-5-5--7---------9---9----5----------------------|
E|----------55--5-5-5-77-7-7-7-33--3-3/5----------------|

e|------------------------------------------------------|
b|------------------------------------------------------|
g|------7-----------------------------------------------|
d|----7---7------7-7----9-------------------------------|
a|--55-5-5-5--7-------9---9----5------------------------|
E|----------55--5-5-77-7-7-733--3-3/5-------------------|
Comments