Thousand Foot Krutch - When In Doubt Chords & Tabs

 

When In Doubt Chords & Tabs

Thousand Foot Krutch Chords & Tabs

Version: 3 Type: Tab 0 ratings
1 star 2 stars 3 stars 4 stars 5 stars
comments

When In Doubt Tab

Band - Thousand Foot Krutch
Song - When in Doubt
DJD Entertainment
Tabbed by Pat aka Mista T

X = Palm mute I have in parenthesis ( ) the notes to mute
^ = Bend
h = Hammer on
P.M. = Hold note(s)

Standard Tuning

Intro
e------------------------------------------------------------
b------------------------------------------------------------
g-------7----------------------------------------------------
d-----7----7----------7----------9-------------5-------------
a---5--------5------7----7-----9---9---------5---5-----------
e--------------0--5--------5/7-------7-7\3-3-------3/5-5-5---

Repeat through opening versus 5x


Then in the verse it becomes heavily distorted with
a muffled sound to it.
                           P.M...............
e------------------------------
b------------------------------
g------------------------------
d---5---x(5)-x(5)-x-x-x-5/7----
a---5---x(5)-x(5)-x-x-x-5/7----
e---3---x(3)-x(3)-x-x-x-3/5----

Faster part 2x

e----------------------------------------------------------
b----------------------------------------------------------
g----------------------------------------------------------
d---7-7-5-5-4-4---7-7-5-5-4---7-7-5-5-4-4---0-0-4-4-5--5---
a----------------------------------------------------------
e----------------------------------------------------------

[ Tab from: http://www.guitartabs.cc/tabs/t/thousand_foot_krutch/when_in_doubt_tab_ver_3.html ]
Bridge
Repeat  this part 2x
e-------------------------------------------------------
b-------------------------------------------------------
g---7xx(7)----------------------------------------------
d---7xx(7)---7xx(7)---9-9-9xx----5xxx(5)----------------
a---5xx(5)---7xx(7)---9-9-9xx----5xxx(5)----------------
e------------5xx(5)---7-7-7xx----3xxx(3)----------------

Bridge (Continued)
after repeating the first part it slides into this part
this part of the bridge is also reapeted twice
2x
e------------------------------------------------------
b------------------------------------------------------
g----777777--------------------------------------------
d----777777--77777---9999\---5555---/-777--------------
a----555555--77777---9999-\--5555--/--777--------------
e------------55555---7777--\-3333-/---555--------------

Chorus
repeat 2x

e------------------------------------------------------
b------------------------------------------------------
g----777777x-------------------------------------------
d----777777x--77777x----9999\---5555--/-777-7x---------
a----555555x--77777x----9999-\--5555-/--777-7x---------
e-------------55555x----7777--\-3333/---555-5x---------

Solo
2x
e------------------------------------------------------
b------------------------------------------------------
g------------------------------------------------------
d----777/9----7-7-5-4-4---777/9-7-7-5-4-4--0-5-5-4-4---
a------------------------------------------------------
e------------------------------------------------------

Ending
The song ends with these notes.
           P.M............................................end.   
e----------------
b----------------
g---7--7---------
d---7--7---5-----
a---5--5---5-----
e----------3-----

This is a great song to play, its fairly easy. Fellow christian guitarists, may god move you with this song.
Comments