Thousand Foot Krutch - When In Doubt Chords & Tabs

 

When In Doubt Chords & Tabs

Thousand Foot Krutch Chords & Tabs

Version: 1 Type: Bass Tab 0 ratings
1 star 2 stars 3 stars 4 stars 5 stars
comments

When In Doubt Bass Tab

Band:THOUSAND FOOT KRUTCH
Song: WHEN IN DOUBT
Tabbed out by:Mark
punk_rawk_show_2469@hotmail.com

this song it in standard tuning: EADG

No bass till :20	

RIFF #1  (We sat up on your bed...)
G----------------------
D----------------------
A--5-5-----------------
E------5-5---7-7---3-3-

RIFF #2 
----------------------------------------
----------------------------------------
-55555555-------------------------------
-----------55555555--77777777--33333333-
[ Tab from: http://www.guitartabs.cc/tabs/t/thousand_foot_krutch/when_in_doubt_btab.html ]
RIFF #3
G-----------------------------------------
D-----------------------------------------
A--5-5555---------------------------------
E----------5-5555--7-7777-3-3333----------

RIFF #4
G-----------------------------------------
D-----------------------------------------
A--5--5555--------------------------------
E-----------5--5555--7--77-77--3----------

RIFF #5
G-------------------------------------------
D-------------------------------------------
A--5-5555-----------------------------------
E----------5-5555--7-7777--3-3333-----------

*PLAYING ORDER*

RIFF#1..X2
RIFF#2..X2
RIFF#3..X6 
RIFF#4..X2
RIFF#5..X8
RIFF#2..X2
RIFF#4..X2
RIFF#5..X4
Comments