Thousand Foot Krutch - Unbelievable Chords & Tabs

 

Unbelievable Chords & Tabs

Thousand Foot Krutch Chords & Tabs

Version: 5 Type: Tab 0 ratings
1 star 2 stars 3 stars 4 stars 5 stars
comments

Unbelievable Tab

Tabbed by:THE SANDMAN 
Email:ryan5@iamwasted.com

[ Tab from: http://www.guitartabs.cc/tabs/t/thousand_foot_krutch/unbelievable_tab_ver_5.html ]
e|---------------------------------------------------------------------------|
B|---------------------------------------------------------------------------|
G|------4-4-5-6-6-4-4-2-----4-4-5-6------------------------------------------|
D|-6-6--4-4-5-6-6-4-4-2-6-6-4-4-5-6------------------------------------------|
A|-6-6--2-2-3-4-4-2-2-0-6-6-2-2-3-4------------------------------------------|
E|-4-4------------------4-4--------------------------------------------------|

e|---------------------------------------------------------------------------|
B|---------------------------------------------------------------------------|
G|----------6-6-6-8-8-8------------------------------------------------------|
D|---6-6-6--6-6-6-8-8-8------------------------------------------------------|
A|---6-6-6--4-4-4-6-6-6------------------------------------------------------|
E|---4-4-4-------------------------------------------------------------------|
Comments