Thousand Foot Krutch - Unbelievable Chords & Tabs

 

Unbelievable Chords & Tabs

Thousand Foot Krutch Chords & Tabs

Version: 3 Type: Tab 0 ratings
1 star 2 stars 3 stars 4 stars 5 stars
comments

Unbelievable Tab

Song: Unbelievable (Track #6)
Band: Thousand Foot Krutch
Album: Set It Off
Copyright: 2000 DJD Entertainment

!!Standard Tuning!!

Intro:
e-------------------------------------------
b-------------------------------------------
g------4-4--5--6-6--4-4--2-2-------4-4--5--6
D-6-6--4-4--5--6-6--4-4--2-2--6-6--4-4--5--6
A-6-6--2-2--3--4-4--2-2--0-0--6-6--2-2--3--4
E-4-4-------------------------4-4-----------
[ Tab from: http://www.guitartabs.cc/tabs/t/thousand_foot_krutch/unbelievable_tab_ver_3.html ]
Verses:
e----------------------
b----------------------
g-------6-------8------
D--6----6-------8------
A--6----4-------6------
E--4-------------------

Chorus:
e-------------------------------------------
b-------------------------------------------
g------4-4--5--6-6--4-4--2-2-------4-4--5--6
D-6-6--4-4--5--6-6--4-4--2-2--6-6--4-4--5--6
A-6-6--2-2--3--4-4--2-2--0-0--6-6--2-2--3--4
E-4-4-------------------------4-4-----------

Comments