Thousand Foot Krutch - Unbelievable Chords & Tabs

 

Unbelievable Chords & Tabs

Thousand Foot Krutch Chords & Tabs

Version: 2 Type: Bass Tab 0 ratings
1 star 2 stars 3 stars 4 stars 5 stars
comments

Unbelievable Bass Tab

Unbelievable by Thousand Foot Krutch
cd-Set It OFF
tabbed by Chase Morris

                     Intro/Chorus
[ Tab from: http://www.guitartabs.cc/tabs/t/thousand_foot_krutch/unbelievable_btab_ver_2.html ]
E[-4-4---------------5-4-4-----------------------]
A[-----2-2-3-4-4-2-2-------2-2-3-4---------------]
D[-----------------------------------------------]
G[-----------------------------------------------]
B[-----------------------------------------------]
E[-----------------------------------------------]
               Verse
E[-4---------------------------------------------]
A[---4-4-6-6---Repeat----------------------------]
D[-----------------------------------------------]
G[-----------------------------------------------]
B[-----------------------------------------------]
E[-----------------------------------------------]
                  Bridge

E[-4-4-4-4---------------4-4-4-4-----------------]
A[---------4-4-4-4-6-6-6---------4---------------]
D[-----------------------------------------------]
G[-----------------------------------------------]
B[-----------------------------------------------]
E[-----------------------------------------------]
  
Comments