Thousand Foot Krutch - This Is A Call Chords & Tabs

 

This Is A Call Chords & Tabs

Thousand Foot Krutch Chords & Tabs

Version: 1 Type: Tab 1 rating
1 star 2 stars 3 stars 4 stars 5 stars
comments

This Is A Call Tab

-----------------------------------------------------------------------------
		This is a call - Thousand Foot Krutch
-----------------------------------------------------------------------------
Tabbed by:ascguitarist
Email:ascguitarist@yahoo.com

Tuning:Standard w/CAPO on 2nd fret (Not exact strumming pattern)

  Intro/ Verse
e|-0--0--0--0-|
B|-0--0--0--0-|
G|-1--2--6--2-|
D|-2--2--6--2-|
A|-2--0--4--0-|
E|-0--0--0--0-|
[ Tab from: http://www.guitartabs.cc/tabs/t/thousand_foot_krutch/this_is_a_call_tab.html ]
  Pre
e|----0-----0-|
B|----0-----0-|
G|----2-----2-|
D|-4--2--4--2-|
A|-4--0--4--0-|
E|-2--0--2--0-|

  Chorus
e|-0--0--0--x-|
B|-0--0--0--x-|
G|-1--4--2--x-|
D|-2--4--2--4-|
A|-2--2--0--4-|
E|-0--0--0--2-|
  
  Bridge
e|-0--x--0--0-|
B|-0--x--0--0-|
G|-6--x--2--4-|
D|-6--4--2--4-|
A|-4--4--0--2-|
E|-0--2--0--0-|


Order: 
Intro x2
Verse x2
Pre x1
Chorus x2
Intro x2
Verse x2 
Pre x1
Chorus x2
Bridge x2
Chorus x2
Intro x2
Comments