Thousand Foot Krutch - Supafly Chords & Tabs

 

Supafly Chords & Tabs

Thousand Foot Krutch Chords & Tabs

Version: 1 Type: Tab 1 rating
1 star 2 stars 3 stars 4 stars 5 stars
comments

Supafly Tab

   
Song: Supafly (Track #2)
Band: Thousand Foot Krutch
Album: Set It Off
Copyright: 2000 DJD Entertainment
Tabbed BY: Matthew Price ( mattpriceska@yahoo.com )
http://www.geocities.com/homermusicweb

!! All guitars are tuned to Dropped-D: D, A, D, G, B, E

Verses: (repeat alot)
e-------------
b-------------
g--7-6---7--4-
D-------------
A-------------
D-------------

Interlude between Verses:
e------------------------------------------
b------------------------------------------
g----------------------------------------5-
D--0-0--3--0--6--6---0-0--3--0--3-0-3-0--5-
A--0-0--3--0--6--6---0-0--3--0--3-0-3-0--3-
D--0-0--3--0--6--6---0-0--3--0--3-0-3-0----
[ Tab from: http://www.guitartabs.cc/tabs/t/thousand_foot_krutch/supafly_tab.html ]
Chorus:
e------------------------------------------
b------------------------------------------
g----------------------------------------5-
D--0-0--3--0--6--6---0-0--3--0--3-0-3-0--5-
A--0-0--3--0--6--6---0-0--3--0--3-0-3-0--3-
D--0-0--3--0--6--6---0-0--3--0--3-0-3-0----

next Verse riff:
e-----------
b-----------
g-----------
D-----------
A--3-4-5-5-5
D-----------

And Sometimes I feel.....:
e---------------------------------------------------------------------
b---------------------------------------------------------------------
g--7-7-7-7-7-7----5-5-5-5-5-5-5---------------------------------------
D--7-7-7-7-7-7----5-5-5-5-5-5-5----5-5-5-5-5-5-5-----8-8-8-8-8-8-8-8-8
A--5-5-5-5-5-5----3-3-3-3-3-3-3----5-5-5-5-5-5-5-----8-8-8-8-8-8-8-8-8
D----------------------------------5-5-5-5-5-5-5-----8-8-8-8-8-8-8-8-8

That’s it ENJOY! 

Comments