Thousand Foot Krutch - Stranger Chords & Tabs

 

Stranger Chords & Tabs

Thousand Foot Krutch Chords & Tabs

Version: 2 Type: Tab

Stranger Tab

   
Stranger by TFK
tuning D A D G B E

key:
B-bend
/-slide up
h-hammer

intro/verse:
E)--------------------------0---------------|
B)----------------3-------------------------|
G)------2-------2---------2-----------------|
D)----------------------------------xxxxx00-|
A)------------------1-3-------------xxxxx00-|
D)3-5-0---3-5-0---------0-----1-3-0-xxxxx00-|x4

guitar 2(fill in):i'm not 100% sure on this
E)----------------------------0----------0--|
B)------3b--------3b---------3----------3---|
G)-------------------------33---------33----|
D)xxxx00----xxxx00----xxx0-33----xxx0-33----|
A)xxxx00----xxxx00----xxx0-11----xxx0-11----|
D)xxxx00----xxxx00----xxx0-------xxx0-------|

pre-chorus:
E)-----------------------------------------|
B)-----------------------------------------|
G)-----------------------------------------|
D)-7-7-3-3-5-5-00xx00--7-7-3-3-5-5-00xx00--|
A)-7-7-3-3-5-5-00xx00--7-7-3-3-5-5-00xx00--|
D)-7-7-3-3-5-5-00xx00--7-7-3-3-5-5-00xx00--|

chorus:
E)-----------------------------------------------------------|
B)-----------------------------------------------------------|
G)------33333-------55---------33333-------------------------|
D)-0-xx-33333-3-3-3-55-0-3-000-33333-3-3-3-5-----------------|
A)-0-xx-11111-3-3-3-33-0-3-000-11111-3-3-3-5-----------------|
D)-0-xx-------3-3-3----0-3-000-------3-3-3-5-10-8-0-7-8-5/7--|X2
[ Tab from: http://www.guitartabs.cc/tabs/t/thousand_foot_krutch/stranger_tab_ver_2.html ]
verse 2:
E)--------------------------0----------|
B)-------------------------------------|
G)------2-----------------2------------|
D)-------------------------------------|
A)------------------1-3----------------|
D)3-5-0---3-5-0---------0-----1-3-0----|x2

guitar 2(fill in):
E)------------------------------------------|
B)------3b--------3b---------3-5--------3-5-|
G)-------------------------33---------33----|
D)xxxx00----xxxx00----xxx0-33----xxx0-33----|
A)xxxx00----xxxx00----xxx0-11----xxx0-11----|
D)xxxx00----xxxx00----xxx0-------xxx0-------|

pre-chorus:
E)-----------------------------------------|
B)-----------------------------------------|
G)-----------------------------------------|
D)-7-7-3-3-5-5-00xx00--7-7-3-3-5-5-00xx00--|
A)-7-7-3-3-5-5-00xx00--7-7-3-3-5-5-00xx00--|
D)-7-7-3-3-5-5-00xx00--7-7-3-3-5-5-00xx00--|

chorus:
E)-----------------------------------------------------------|
B)-----------------------------------------------------------|
G)------33333-------55---------33333-------------------------|
D)-0-xx-33333-3-3-3-55-0-3-000-33333-3-3-3-5-----------------|
A)-0-xx-11111-3-3-3-33-0-3-000-11111-3-3-3-5-----------------|
D)-0-xx-------3-3-3----0-3-000-------3-3-3-5-10-8-0-7-8-5/7--|X2

bridge:
E)-----------------------------------------|
B)-----------------------------------------|
G)-----------------------------------------|
D)-0-8-0-8-0-10-0-10-0-10-0-13h12----------|
A)-0-8-0-8-0-10-0-10-0-10-0-13h12----------|
D)-0-8-0-8-0-10-0-10-0-10-0-13h12----------|

solo:i'm working on it-PMT