Thousand Foot Krutch - Step To Me Chords & Tabs

 

Step To Me Chords & Tabs

Thousand Foot Krutch Chords & Tabs

Version: 1 Type: Tab 0 ratings
1 star 2 stars 3 stars 4 stars 5 stars
comments

Step To Me Tab

   
-------------------------------------------------------------------------------
			     Step to Me by TFK
-------------------------------------------------------------------------------
Tabbed by: Nate Martinez

Anothother sweet song by TFK.

Tuning:D a D g b e

Intro
e|---------------------------------------------------------------------------|
B|---------------------------------------------------------------------------|
G|---------------------------------------------------------------------------|
D|---9999---10101010---9999-10101010-9999--777-------------------------------|
A|---9999---10101010---9999-10101010-9999--777-------------------------------|
D|---9999---10101010---9999-10101010-9999--777-------------------------------|

Verse
e|---------------------------------------------------------------------------|
B|---------------------------------------------------------------------------|
G|---------------------------------------------------------------------------|
D|-0-222---2222--000------0-222---2222--000-------0-222---2222--000----------|
A|-0-222---2222--000------0-222---2222--000-------0-222---2222--000----------|
D|-0-222---2222--000------0-222---2222--000-------0-222---2222--000----------|

e|---------------------------------------------------------------------------|
B|---------------------------------------------------------------------------|
G|---------------------------------------------------------------------------|
D|-8888-7-5-3----------------------------------------------------------------|
A|-8888-7-5-3----------------------------------------------------------------|
D|-8888-7-5-3----------------------------------------------------------------|

e|---------------------------------------------------------------------------|
B|---------------------------------------------------------------------------|
G|---------------------------------------------------------------------------|
D|-0-222---2222--000------0-222---2222--000-------0-222---2222--000----------|
A|-0-222---2222--000------0-222---2222--000-------0-222---2222--000----------|
D|-0-222---2222--000------0-222---2222--000-------0-222---2222--000----------|

e|---------------------------------------------------------------------------|
B|---------------------------------------------------------------------------|
G|---------------------------------------------------------------------------|
D|-8888-7-5-3----------------------------------------------------------------|
A|-8888-7-5-3----------------------------------------------------------------|
D|-8888-7-5-3----------------------------------------------------------------|

Chorus
e|---------------------------------------------------------------------------|
B|---------------------------------------------------------------------------|
G|---------------------------------------------------------------------------|
D|-5-555--000-7--5-000--7777777---5-555--000-7--5-000--9999999---------------|
A|-5-555--000-7--5-000--7777777---5-555--000-7--5-000--9999999---------------|
D|-5-555--000-7--5-000--7777777---5-555--000-7--5-000--9999999---------------|

e|---------------------------------------------------------------------------|
B|---------------------------------------------------------------------------|
G|---------------------------------------------------------------------------|
D|-5-555--000-7--5-000--7777777---5-555--000-7--5-000--9999999---------------|
A|-5-555--000-7--5-000--7777777---5-555--000-7--5-000--9999999---------------|
D|-5-555--000-7--5-000--7777777---5-555--000-7--5-000--9999999---------------|

Verse
e|---------------------------------------------------------------------------|
B|---------------------------------------------------------------------------|
G|---------------------------------------------------------------------------|
D|-0-222---2222--000------0-222---2222--000-------0-222---2222--000----------|
A|-0-222---2222--000------0-222---2222--000-------0-222---2222--000----------|
D|-0-222---2222--000------0-222---2222--000-------0-222---2222--000----------|
[ Tab from: http://www.guitartabs.cc/tabs/t/thousand_foot_krutch/step_to_me_tab.html ]
e|---------------------------------------------------------------------------|
B|---------------------------------------------------------------------------|
G|---------------------------------------------------------------------------|
D|-8888-7-5-3----------------------------------------------------------------|
A|-8888-7-5-3----------------------------------------------------------------|
D|-8888-7-5-3----------------------------------------------------------------|

Chorus
e|---------------------------------------------------------------------------|
B|---------------------------------------------------------------------------|
G|---------------------------------------------------------------------------|
D|-5-555--000-7--5-000--7777777---5-555--000-7--5-000--9999999---------------|
A|-5-555--000-7--5-000--7777777---5-555--000-7--5-000--9999999---------------|
D|-5-555--000-7--5-000--7777777---5-555--000-7--5-000--9999999---------------|

e|---------------------------------------------------------------------------|
B|---------------------------------------------------------------------------|
G|---------------------------------------------------------------------------|
D|-5-555--000-7--5-000--7777777---5-555--000-7--5-000--9999999---------------|
A|-5-555--000-7--5-000--7777777---5-555--000-7--5-000--9999999---------------|
D|-5-555--000-7--5-000--7777777---5-555--000-7--5-000--9999999---------------|


Bridge
e|---------------------------------------------------------------------------|
B|---------------------------------------------------------------------------|
G|---------------------------------------------------------------------------|
D|-8888-8888-88-----8888-8888-88---------------------------------------------|
A|-8888-8888-88-----8888-8888-88---------------------------------------------|
D|-8888-8888-88-----8888-8888-88---------------------------------------------|

Chorus
e|---------------------------------------------------------------------------|
B|---------------------------------------------------------------------------|
G|---------------------------------------------------------------------------|
D|-5-555--000-7--5-000--7777777---5-555--000-7--5-000--9999999---------------|
A|-5-555--000-7--5-000--7777777---5-555--000-7--5-000--9999999---------------|
D|-5-555--000-7--5-000--7777777---5-555--000-7--5-000--9999999---------------|

e|---------------------------------------------------------------------------|
B|---------------------------------------------------------------------------|
G|---------------------------------------------------------------------------|
D|-5-555--000-7--5-000--7777777---5-555--000-7--5-000--9999999---------------|
A|-5-555--000-7--5-000--7777777---5-555--000-7--5-000--9999999---------------|
D|-5-555--000-7--5-000--7777777---5-555--000-7--5-000--9999999---------------|


Outro
e|---------------------------------------------------------------------------|
B|---------------------------------------------------------------------------|
G|---------------------------------------------------------------------------|
D|-0-222---2222--000------0-222---2222--000-------0-222---2222--000----------|
A|-0-222---2222--000------0-222---2222--000-------0-222---2222--000----------|
D|-0-222---2222--000------0-222---2222--000-------0-222---2222--000----------|

e|---------------------------------------------------------------------------|
B|---------------------------------------------------------------------------|
G|---------------------------------------------------------------------------|
D|-8888-7-5-3----------------------------------------------------------------|
A|-8888-7-5-3----------------------------------------------------------------|
D|-8888-7-5-3----------------------------------------------------------------|

e|---------------------------------------------------------------------------|
B|---------------------------------------------------------------------------|
G|---------------------------------------------------------------------------|
D|-0-222---2222--000------0-222---2222--000-------0-222---2222--000----------|
A|-0-222---2222--000------0-222---2222--000-------0-222---2222--000----------|
D|-0-222---2222--000------0-222---2222--000-------0-222---2222--000----------|

e|---------------------------------------------------------------------------|
B|---------------------------------------------------------------------------|
G|---------------------------------------------------------------------------|
D|-8888-7-5-3----------------------------------------------------------------|
A|-8888-7-5-3----------------------------------------------------------------|
D|-8888-7-5-3----------------------------------------------------------------|

| /  slide up
| \  slide down
| h  hammer-on
| p  pull-off
| ~  vibrato
| +  harmonic
| x  Mute note
=============================================================================
Comments