Thousand Foot Krutch - Step To Me Chords & Tabs

 

Step To Me Chords & Tabs

Thousand Foot Krutch Chords & Tabs

Version: 1 Type: Bass Tab

Step To Me Bass Tab

band-thousand foot krutch
song-step to me
bassist-joel bruyere
tabber-ben(jamin) williams
tuning-EADG


intro/pre chorus 00:10       these r tens
G-------------------------------\/\/\/---------|
D-------------------------------101010-9-7-5-7-|
A-7-77-7-5--7-77-7-5--7-77-7-5-----------------|  x1
E----------------------------------------------|

verse 00:20
G--------------------      G----------------------|
D--------9-----------      D------9-7-------------|
A-----7---------9-10-  x3  A---6-------7/9-7/9/10-| x1  whole thing x2
E-----------77-------      E----------------------|

pre chorus 00:40
G---------------------------------------|
D-------------------------------101010--|
A-7-77-7-5--7-77-7-5--7-77-7-5----------|  x1
E---------------------------------------|

chorus 00:50
G--------------------------------------------------|
D-------------------------------------------555----|
A-7-7-777-5/10-5-5-555-5/7-7-7-777-5/10-5-5----555-|  X2
E--------------------------------------------------|
[ Tab from: http://www.guitartabs.cc/tabs/t/thousand_foot_krutch/step_to_me_btab.html ]
verse 2 01:10
G--------------------      G----------------------|
D--------9-----------      D------9-7-------------|
A-----7---------9-10-  x3  A---6-------7/9-7/9/10-| x1  whole thing x2
E-----------77-------      E----------------------|

pre chorus 01:30
G--------------------------------------|
D-------------------------------101010-|
A-7-77-7-5--7-77-7-5--7-77-7-5---------|  x1
E--------------------------------------|

chorus 01:40
G--------------------------------------------------|
D-------------------------------------------555----|
A-7-7-777-5/10-5-5-555-5/7-7-7-777-5/10-5-5----555-|  X2
E--------------------------------------------------|

bridge 02:00        02:08                  02:17
G--------         G--------------         G--------------|
D--------         D--------------         D--------------|
A--7~----  pause  A-666--6666-66-  pause  A-6666-6666-66-|
E--------         E--------------         E--------------|

chorus 02:20
G--------------------------------------------------|
D-------------------------------------------555----|
A-7-7-777-5/10-5-5-555-5/7-7-7-777-5/10-5-5----555-|  X2
E--------------------------------------------------|

outro 02:40
G----------------------------------------------|
D-------------------------------101010-9-7-5-7-|
A-7-77-7-5--7-77-7-5--7-77-7-5-----------------| x2
E----------------------------------------------|

there u have it. enjoi. TFK ROCKS!!!!       peace.