Thousand Foot Krutch - Set It Off Chords & Tabs

 

Set It Off Chords & Tabs

Thousand Foot Krutch Chords & Tabs

Version: 2 Type: Tab 0 ratings
1 star 2 stars 3 stars 4 stars 5 stars
comments

Set It Off Tab

Tabbed by:THE SANDMAN
Email:ryan5@iamwasted.com

Tuning:drop d


e|-----------------------|---------------------|
b|-----------------------|---------------------|
g|-----------------------|---------------------|
d|-----------------5-3---|---------------------|
a|-0-0------3-5-3--------|-0-0------3-5-3-0----|
d|-0-0--3h5--------------|-0-0--3h5---------3--|
 pm* *                   pm* *
[ Tab from: http://www.guitartabs.cc/tabs/t/thousand_foot_krutch/set_it_off_tab_ver_2.html ]
e|-----------------------|--------|-------------------------|
b|-----------------------|--------|-------------------------|
g|-----------------------|--------|-------------------------|
d|-----------------------|--------|-------------------------|
a|0-00-3h5-00-8h10-00-7-6|--(3x)--|0-00-3h5-00-10-8-6/7-7---|
d|0-00-3h5-00-8h10-00-7-6|--------|0-00-3h5-00-10-8-6/7-7---|

e|-----------------------|--------|-------------------------|
b|-----------------------|--------|-------------------------|
g|-----------------------|--------|-------------------------|
d|-----------------------|--------|-------------------------|
a|0-00-3h5-00-8h10-00-7-6|--(3X)--|0-00-3h5-00-10h12-8\7-67-|
d|0-00-3h5-00-8h10-00-7-6|--------|0-00-3h5-00-10h12-8\7-67-|
pm*                                          pm*

e|-----------------------|---------------------|
b|-----------------------|---------------------|
g|------------2----------|---------------------|
d|------------2----------|---------------------|
a|2/3-x-22-33-2--2-22/3-3|2/3-x-22/3\22--00-0-0|
d|2/3-x-22-33-2--2-22/3-3|2/3-x-22/3\22--00-0-0|
Comments