Thousand Foot Krutch - Puppet Chords & Tabs

 

Puppet Chords & Tabs

Thousand Foot Krutch Chords & Tabs

Version: 2 Type: Bass Tab

Puppet Bass Tab

Band- Thousand Foot Krutch
Song- Puppet

Tuning: GDAD   r=let ring

Intro/After Chorus        x4
G----------------------------|------|
D----------------------------|-0-2r-|
A-4-3-0----4-3-0----4-3-0----|------|  x2 (whole thing)
D----------------------------|------|

Verse/Pre-chorus)
G------------------------------------|
D---------------4--------------------|
A-4-4-4-5-4--------4---------5-5-5-5-|
D------------------------------------|

G----------------------------|
D---------------6-----9--6-4-|
A-4-4-4-5-3--------4---------| x2
D----------------------------|
[ Tab from: http://www.guitartabs.cc/tabs/t/thousand_foot_krutch/puppet_btab_ver_2.html ]
After Verse 1
G---------------------------|
D---------------------------|
A---------------------------|
D-01-01-01-02---01-01-01-01-|

Pre-chorus x2
Chorus
G---------------------------------------------|
D---------------------------------------------|
A-4-4-4-5-4----4-4-4-5-2----4-4-4-5-4------2r-| x2
D---------------------------------------------|

After Chorus x2
Bass Solo
G---------------------|
D-----5-4r---------5r-|
A-4-5--------4-5-4----| x4
D---------------------|

Riff         x3
G---------------|--------------|
D-------------4-|--------------|
A-5554--5554----|-5554-777-999-| x4 (whole thing)
D---------------|--------------|

Chorus x2
After Chorus x2