Thousand Foot Krutch - Phenomenon Chords & Tabs

 

Phenomenon Chords & Tabs

Thousand Foot Krutch Chords & Tabs

Version: 2 Type: Tab 0 ratings
1 star 2 stars 3 stars 4 stars 5 stars
comments

Phenomenon Tab

Artist: Thousand Foot Krutch
Song: Phenomenon
Tabbed By: Joshua (aka Komi)





I garuntee that this is 100% CORRECT. If you have any Comments, suggestions, fan mail,
hate mail, etc, etc, etc, email me @ brothachristian@teamfca.com.

[ Tab from: http://www.guitartabs.cc/tabs/t/thousand_foot_krutch/phenomenon_tab_ver_2.html ]
E |----------------------------|
B |----------------------------|
G |----------------------------|
D |--5-5-5-5--5--5-------------|   X2
A |--5-5-5-5--5--5-------------|
E |--3-3-3-3--3--3-------------|

E |----------------------------|
B |----------------------------|
G |----------------------------|
D |--6-6-6-6--6----------------|
A |--6-6-6-6--6----------------|
E |--8-8-8-8--8----------------|

E |----------------------------|
B |----------------------------|
G |----------------------------|
D |--1-1-1-1--1----------------|
A |--1-1-1-1--1----------------|
E |--3-3-3-3--3----------------|
Comments