Thousand Foot Krutch - Phenomenon Chords & Tabs

 

Phenomenon Chords & Tabs

Thousand Foot Krutch Chords & Tabs

Version: 1 Type: Bass Tab 0 ratings
1 star 2 stars 3 stars 4 stars 5 stars
comments

Phenomenon Bass Tab

   
I play it with a 5 string so here it is, tfk rocks.

song:phenomenon
tabbed by:shae

Intro: Bass comes in with words.
g|-----------------------------------------------|       verse 1
d|-----------------------------------------------|
a|-----------------------------------------------|
e|3-3-3-3--3--3-3-3-3--3-6-6-6-6--6-1-1-1-1--1---|
b|-----------------------------------------------|

chorus1:  play 2x
g|----------------------------------------|
d|----------------------------------------|
a|----------------------------------------|
e|-------------3-333-3-333----------------|
b|4--444-3--333---------------------------|
then
g|----------------------------------------------|
d|----------------------------------------------|
a|----------------------------------------------|
e|-------------3-333-3-333/6-6668-888-----------|
b|4--444-3--333----------------------4-4443-333-|

verse 2:4x
g|---------------------------------------------|
d|---------------------------------------------|
a|---------------------------------------------|
e|3-3-3-3--3--3-3-3-3--3-6-6-6-6--6-1-1-1-1--1-|
b|---------------------------------------------|
verse 2:part two:the verse gets heavy and fast and awesome!
g|---------------------------------|
d|---------------------------------|
a|---------------------------------|
e|3333333-3333333-6666666-11111111-|
b|---------------------------------|
[ Tab from: http://www.guitartabs.cc/tabs/t/thousand_foot_krutch/phenomenon_btab.html ]
g|------------------------------|
d|------------------------------|
a|------------------------------|
e|3333333-3333333-6666666-1-1-1-|
b|------------------------------|

chorus 2: play 2x
g|----------------------------------------------|
d|----------------------------------------------|
a|----------------------------------------------|
e|-------------3--333-3-333---------------------|
b|4--444-3--333---------------------------------|

g|-----------------------------------------------|
d|-----------------------------------------------|
a|-----------------------------------------------|
e|-------------3--333-3-333/6-6668-888-----------|
b|4--444-3--333-----------------------4-4443-333-|

bridge: play 4x
g|----------------------------------|
d|----------------------------------|
a|----------------------------------|
e|33333333--------66666666-88888888-|
b|--------33333333------------------|

chorus 3: soft part
g|--------------------------      play--| 2x
d|1--111-0--000-5--555-5-555------------|
a|--------------------------------------|
e|--------------------------------------|
b|--------------------------------------|

chorus 3: then it gets heavy:
g|------------------------------------------------|
d|------------------------------------------------|
a|------------------------------------------------|
e|-------------3--333-3--333/6-6668-888-----------|
b|s4--444-3-333------------------------4-4443-333-|

then just repeat the bridge 4x and that is it! rock on tfk
please rate tab
Comments