Thousand Foot Krutch - Ordinary Chords & Tabs

 

Ordinary Chords & Tabs

Thousand Foot Krutch Chords & Tabs

Version: 1 Type: Tab 0 ratings
1 star 2 stars 3 stars 4 stars 5 stars
comments

Ordinary Tab

Author/Artist: Thousand Foot Krutch
Title: Ordinary
Album: Phenomenon
Transcribed by: matt
no one could get the whole song, so i'm leaving nothing to the imagination.
this is probably 85-90% right....

------------------------------------------------------------------------------|
---clean---------------distorted----------------------------------------------|
---5-0----5-------------------------------------------------------------------|
-0-5-3--0-5-2--------3-2-1-0--3-2-1-0--3-2-0----8-8-8-8-7-7-x-10--------------|
-0-3-0--0-3-2--------3-2-1-0--3-2-1-0--3-2-0-x2-8-8-8-8-7-7-x-10--------------|
-0------0---2--------3-2-1-0--3-2-1-0--3-2-0----8-8-8-8-7-7-x-10--------------|


------------------------------------------------------------------------------|
--------------------------------verse-----------------------------------------|
------------------------------------------------------------------------------|
-----------------7-----------------8---------------7----------------8-7-5-----|
-----------------7-----------------8---------------7----------------8-7-5-----|
-0000-0000---00007-0000-0000---00008-0000-0000-00007-0000-0000---0008p7-5-----|
 .... ....   ....  .... ....   ....  .... .... ....  .... ....   ...

------------------------------------------------------------------------------|
--------------------------------------post verse------------------------------|
------------------------------------------------------------------------------|
-0-7-0-7-3-0-7-8------8p7-5/7-0-7-0-7-3-0-7-8-0-0-----------------------------|
-0-7-0-7-3-0-7-8------8p7-5/7-0-7-0-7-3-0-7-8-0-0-----------------------------|
-0-7-0-7-3-0-7-8-0000-8p7-5/7-0-7-0-7-3-0-7-8-0-0-----------------------------|
                 ....
[ Tab from: http://www.guitartabs.cc/tabs/t/thousand_foot_krutch/ordinary_tab.html ]
------------------------------------------------------------------------------|
------------------------------------------------------------------------------|
------------------------------------------------------------------------------|
--3-2-1-0--3-2-1-0--3-2-0--3-2-1-0--3-2-1-0--3-2-0----------------------------|
--3-2-1-0--3-2-1-0--3-2-0--3-2-1-0--3-2-1-0--3-2-0----------------------------|
--3-2-1-0--3-2-1-0--3-2-0--3-2-1-0--3-2-1-0--3-2-0----------------------------|

verse
post verse x2

----------------------------|-------------------------------------------------|
----------clean-------------|---distorted-------------------------------------|
---5-0----5------5-0----5---|--5-0--000000----5-------------------------------|
-0-5-3--0-5-2--0-5-3--0-5-2-|0-5-3--333333--0-5-2-----------------------------|
-0-3-0--0-3-2--0-3-0--0-3-2-|0-3-0--000000--0-3-2-222-222-222-----------------|
-0------0---2--0------0---2-|0--------------0---2-222-222-222-----------------|
                                                  ..  ..  ..


------------------------------------------------------------------------------|
------------------------------------------------------------------------------|
------------------------------------------------------------------------------|
-2222222222222222----2--2-----------------------------------------------------|
-2222222222222222-x3-2--2-----------------------------------------------------|
-2222222222222222----2--2-----------------------------------------------------|

post verse x2

|------------------------------------------------------------------------------|
|------------------------------------------------------------------------------|
|------------------------------------------------------------------------------|
|-0000000000000000101010101010101010101010101010105555555555555555888888888888-
|-0000000000000000101010101010101010101010101010105555555555555555888888888888-
|-0000000000000000101010101010101010101010101010105555555555555555888888888888-
                   (10s not 1s & 0s)

-----|-------------------------------------------------------------------------|
--x2-|-------------------------------------------------------------------------|
-----|-------------------------------------------------------------------------|
-8888|--3/2-1-0--3/2-1-0--3/2-0--3/2-1-0--3/2-1-0--3/2-0--3/2-1-0--3/2-1-0-000-|
-8888|--3/2-1-0--3/2-1-0--3/2-0--3/2-1-0--3/2-1-0--3/2-0--3/2-1-0--3/2-1-0-000-|
-8888|--3-2-1-0--3-2-1-0--3-2-0--3-2-1-0--3-2-1-0--3-2-0--3-2-1-0--3-2-1-0-000-|
                                                                          ...
Comments