Thousand Foot Krutch - Move Chords & Tabs

 

Move Chords & Tabs

Thousand Foot Krutch Chords & Tabs

Version: 2 Type: Tab

Move Tab

Ok nobody has tabbed the whole song so I'll be the first.

Drop B tuning

.=mute

Intro
C#------------------------------------------------------------|
G#------------------------------------------------------------|
E ------------------------------------------------------------|
B -----777-8-----8p7-7-----101010-8-----10h12-12--------------|
F#-555-------555-------555----------555-----------------------|
B ------------------------------------------------------------|

C#------------------------------------------------------------|
G#------------------------------------------------------------|
E ------------------------------------------------------------|
B -----777-8-----8p7-7-----101010-8-----7---------------------|
F#-555-------555-------555----------555---8-55----------------|
B ------------------------------------------------------------|

Chorus
C#------------------------------------------------------------------|
G#------------------------------------------------------------------|
E ---------55-5/7-7--------555-33---------55-5/7-7----------10-55---|
B -0-7-3-0-55-5/7-7-00-777-555-33-0-7-3-0-55-5/7-7-00-777-8-10-55---|
F#-0-7-3-0-33-3/5-5-00-777-333-11-0-7-3-0-33-3/5-5-00-777-8-8--33---|
B -0-7-3-0----------00-777--------0-7-3-0----------00-777-8---------|

Verse
C#------------------------------------------------------------------|
G#------------------------------------------------------------------|
E ------------------------------------------------------------------|
B ------------------------------------------------------------------|
F#------------------------------------------------------------------|
B -000-777-8-000-8p7-7-000-101010-8-000-10p12-12--------------------|
[ Tab from: http://www.guitartabs.cc/tabs/t/thousand_foot_krutch/move_tab_ver_2.html ]
C#------------------------------------------------------------------|
G#------------------------------------------------------------------|
E ------------------------------------------------------------------|
B ----------------------------------8/7-7\8-------------------------|
F#----------------------------------8/7-7\8-------------------------|
B -000-777-8-000-8p7-7-000-101010-8-8/7-7\8-------------------------|

#--------------------------------------------------------------------|
G#-------------------------------------------------------------------|
E -------------------------------------------------------------------|
B -------------------------------------------------------------------|
F#-------------------------------------------------------------------|
B -000-777-8-000-8p7-7-000-101010-8-000-10p12-12---------------------|

C#------------------------------------------------------------------|
G#------------------------------------------------------------------|
E ------------------------------------------------------------------|
B -------------------------------------------------777-8------------|
F#---------------------------------------------555------------------|
B -000-777-8-000-8p7-7-000-101010-8-000-7-3-00----------------------|

Chorus x2

Verse

Chorus x2

Bridge
C#------------------------------------------------------------------| x2
G#------------------------------------------------------------------|
E -55555555-33333333------------------------------------------------|
B -55555555-33333333-0-----1-0-----0-0-----1-0-----0----------------|
F#-33333333-11111111-0-------0-------0-------0----------------------|
B -------------------0-000---0-000---0-000---0-000------------------|
                       ...     ...     ...     ...

C#------------------------------------------------------------------|
G#------------------------------------------------------------------|
E -33333333-55555555-33333333-55555555-33333333-55555555--3---------|
B -33333333-55555555-33333333-55555555-33333333-55555555--3---------|
F#-11111111-33333333-11111111-33333333-11111111-33333333--1---------|
B ------------------------------------------------------------------|

Chorus x2