Thousand Foot Krutch - Move Chords & Tabs

 

Move Chords & Tabs

Thousand Foot Krutch Chords & Tabs

Version: 1 Type: Tab 0 ratings
1 star 2 stars 3 stars 4 stars 5 stars
comments

Move Tab

hello i luv this song and wanted to learn how to play it......so i did(but just the
intro) for the intro you can palm mute it or not its kinda hard to tell in the song,
i tried to do the rest of the song but its really hard to hear. this tab is 100% correct
im sure of it.
 
Tuning: Drop D

p=pull off
h=hammer on

[ Tab from: http://www.guitartabs.cc/tabs/t/thousand_foot_krutch/move_tab.html ]
e|-------------------------------------------------------------|
B|-------------------------------------------------------------|
G|-------------------------------------------------------------|
D|------4-4-4-5-------------5p4-----------7-7-7-4---------7h9--|
A|2-2-2---------------2-2-2---------2-2-2-----------2-2-2------|
D|-------------------------------------------------------------|

e|-----------------------------------------------------------------|
B|-----------------------------------------------------------------|
G|-----------------------------------------------------------------|
D|------4-4-4-5-------------5p4-----------7-7-7-4---------4-0-0-0--|
A|2-2-2---------------2-2-2---------2-2-2-----------2-2-2----------|
D|-----------------------------------------------------------------|

thats it, pretty sure thats its correct. will be working on the rest of the song.

always rawk on 4 him

-TayTay 
Comments