Thousand Foot Krutch - Lift It Chords & Tabs

 

Lift It Chords & Tabs

Thousand Foot Krutch Chords & Tabs

Version: 2 Type: Tab 0 ratings
1 star 2 stars 3 stars 4 stars 5 stars
comments

Lift It Tab


Submitted By: Josh Hammill
Song: Lift it
Artist: Thousand Foot Krutch
**********************************************************************
[ Tab from: http://www.guitartabs.cc/tabs/t/thousand_foot_krutch/lift_it_tab_ver_2.html ]
Verse:
----------------------------------------------------------------------
----------------------------------------------------------------------
----------------------------------------------------------------------
------5--5------7--7-------2--2--0--2--0--2--0------------------------
--0-2--2--2----5--5--5----2--2-----2-----2----------------------------
----------------------------------------------------------------------

Chorus:
----------------------------------------------------------------------
----------------------------------------------------------------------
----------------------------------------------------------------------
----------------------------------------------------------------------
--5-5-5-5---7-7-7-7---2-2-2-2-2-2-2-2---------------------------------
--3-3-3-3---5-5-5-5---2-2-2-2-2-2-2-2---------------------------------


That's pretty much it so have fun!!



Comments