Thousand Foot Krutch - Art Of Breaking Chords & Tabs

 

Art Of Breaking Chords & Tabs

Thousand Foot Krutch Chords & Tabs

Version: 1 Type: Tab

Art Of Breaking Tab

   
Tabbed by:Jcampbell821
Email:jc4life30@yahoo.com
[ Tab from: http://www.guitartabs.cc/tabs/t/thousand_foot_krutch/art_of_breaking_tab.html ]
Tuning:D
  Intro
e|---------------------------------------------------------------------------|
B|---------------------------------------------------------------------------|
G|---------------------------------------------------------------------------|
D|-66-66-66---66-66-66-------------------------------------------------------|
A|-66-66-66---66-66-66-------------------------------------------------------|
D|-66-66-66---66-66-66-------------------------------------------------------|
  Verse/Pre-Chorus
e|---------------------------------------------------------------------------|
B|---------------------------------------------------------------------------|
G|---------------------------------------------------------------------------|
D|-66-66-66-44-44-44-22-22-22--4-4-4-5-5-5-----------------------------------|x2
A|-66-66-66-44-44-44-22-22-22--4-4-4-5-5-5-----------------------------------|
D|-66-66-66-44-44-44-22-22-22--4-4-4-5-5-5-----------------------------------|
  Chorus
e|---------------------------------------------------------------------------|
B|---------------------------------------------------------------------------|
G|---------------------------------------------------------------------------|
D|-6-6-66-6-2-2-4-4-44-4-----------------------------------------------------|
A|-6-6-66-6-2-2-4-4-44-4-----------------------------------------------------|
D|-6-6-66-6-2-2-4-4-44-4-----------------------------------------------------
 After 2nd Chous x8
e|---------------------------------------------------------------------------|
B|---9-----------------------------------------------------------------------|
G|-6---6---------------------------------------------------------------------|    
D|---------------------------------------------------------------------------|
A|---------------------------------------------------------------------------|
D|---------------------------------------------------------------------------|
 After 8 times play this then chorus
e|---------------------------------------------------------------------------|
B|---------------------------------------------------------------------------|
G|---------------------------------------------------------------------------|
D|-6-2-4-6-------------------------------------------------------------------|
A|-6-2-4-6-------------------------------------------------------------------|
D|-6-2-4-6-------------------------------------------------------------------|