Thousand Foot Krutch - All The Way Live Chords & Tabs

 

All The Way Live Chords & Tabs

Thousand Foot Krutch Chords & Tabs

Version: 1 Type: Bass Tab

All The Way Live Bass Tab

   
standered tuning: EADG
here you go this is how it shud be

VERSES 

G-----------------------------------------|
D-----------------------------------------|
A--5h7p5-3h5------------5h7p5-3h5-/9p7h9--|
E-0-----------0h5-0h3--0------------------|

G-----------------------------------------|
D---------------------------------/12-----|
A--5h7p5-3h5------------5h7p5-3h5---------|
E-0-----------0h5-0h3--0------------------|

POST VERSE/ PRE CHORUS
   play 3x  then       
G---------|---------|
D---------|---------|
A-5-5-----|-5-5-5h7-|
E-----5h7-|---------|

CHORUS
[ Tab from: http://www.guitartabs.cc/tabs/t/thousand_foot_krutch/all_the_way_live_btab.html ]
G---------------------------|
D---------------------------|
A-----7-----7-----7---------|
E-0-0---0-O---0-0---3-3-5h6-|

BRIDGE 1

G-------------------|
D-------------------|
A---------------12*-|
E-00--00--00--00----|

BRIDGE 2

G----------------------------------------|
D-5-------5--------5-----5---7-5---------| repeat exept for 75-75-75
A---2-/5*---2-/5/7---2-5*--2-----7-5-----|
E------------------------------------7-5-|

BRIDGE 3

G---------------|
D---------------|
A-------------0-|
E-00-00-00-00---|

thats preety much it the ending chorus is slower and theres a lot of repeats so you can
figure that out plz rate cuz this is only my second tab i want to see how good or bad i
am