Thousand Autumns - I Chose Not To Remember Chords & Tabs

 

I Chose Not To Remember Chords & Tabs

Thousand Autumns Chords & Tabs

Version: 1 Type: Bass Tab

I Chose Not To Remember Bass Tab

Thousand Autumns


'I chose not to Remember'


Eb --
Bb ---
Gb ----
Db -----
Ab --------|
Eb --------|


Chorus/ Intro

------------------------------------------------------------------------------|
------------------------------------------------------------------------------|
------------------------------------------------------------------------------|
------------------------------------------------------------------------------|
------------------------------------------------------------------------------|
-0--0-0--0-0--0-0--0-0-0--4--4-4--4-4--4--4--4--4-4--0--0-0--0-0--0-0--0--0-0-|


-----------------------------------------------------------------------------|
-----------------------------------------------------------------------------|
-----------------------------------------------------------------------------|
-----------------------------------------------------------------------------|
-----------------------------------------------------------------------------|
-4--4-4--4-4--4-4-4-4-6-7-7-2-2--0--0-0--0-0--0-0--0--0-0--4--4-4--4-4--4--4-|

[ Tab from: http://www.guitartabs.cc/tabs/t/thousand_autumns/i_chose_not_to_remember_btab.html ]
-----------------------------------------------------------------------------|
-----------------------------------------------------------------------------|
-----------------------------------------------------------------------------|
-----------------------------------------------------------------------------|
-----------------------------------------------------------------------------|
4--4-4--9--9-9--9-9--9-9--9--9-9-11--12--12-12--12-12-12-12--3-3-3-3-3-------|



Verse-

-----------------------------------------------------------------------------|
-----------------------------------------------------------------------------|
-----------------------------------------------------------------------------|
-----------------------------------------------------------------------------|
-----------------------------------------------------------------------------|
-----4--4-4-----------2-4--4-4--------6-6-6-7--7-7--7-7-7--4--4-4--4-4-2-----|



-----------------------------------------------------------------------------|
-----------------------------------------------------------------------------|
-----------------------------------------------------------------------------|
-----------------------------------------------------------------------------|
-----------------------------------------------------------------------------|
-----0--0-0------------0--0-0---------0-2-2-2-4--0---2-----------------------|


Riff


--4-p-0--9-10-9~~p-0-10-p-0-9-p-0-7-h-9

--4-p-0--9-10-9~~p-0-(s) \/ X2 (variate)


Hope this helps