Thou Art Lord - A Call To Chaos Chords & Tabs

 

A Call To Chaos Chords & Tabs

Thou Art Lord Chords & Tabs

Version: 1 Type: Tab 0 ratings
1 star 2 stars 3 stars 4 stars 5 stars
comments

A Call To Chaos Tab

   
Artist: Thou Art Lord
Song: A call to chaos (kaos-keravnos-kybernetos)
Album: Eosforos
Tuning: Regular E

I have just transcribed the riffs, I'm to lazy to write down
the arrangement!
Just listen to the record and play along!!!

Intro riff	          x3          4th time (only at intro)
|------------------------|--------------------------|
|------------------------|--------------------------|
|------------------------|--------------------------|
|--7----6----5----4------|--7-7--6-6--5-5--4-4------|
|--5----4----3----2------|--5-5--4-4--3-3--2-2------|
|-----5----4----3----2---|--------------------------|
p.m.............................................


Verse riff
|------------------------------------------------------------------|
|------------------------------------------------------------------|
|------------------------------------------------------------------|
|------------------------------------------------------------------|
|-----------------------7--6------4-4-4-4-4-4-4-4-4-4-4-4-4-4-4-4--|
|--5-5-5-5-5-5-5-5-5----------7------------------------------------|
p.m...............................................................

[ Tab from: http://www.guitartabs.cc/tabs/t/thou_art_lord/a_call_to_chaos_tab.html ]
Riff 3a (guitar 1)		    Riff3b (guitar 2)
|------------------------------||-------------------------------|
|------------------------------||-------------------------------|
|------------------------------||-------------------------------|
|------------------------------||--5h6p5--4h5p4--3h4p3--2h3p2---|
|--5h6p5--4h5p4--3h4p3--2h3p2--||-------------------------------|
|------------------------------||-------------------------------|


Riff 4
|--------------------------------------|
|--------------------------------------|
|--------------------------------------|
|-------------2--------------------3---|
|--2--2---2---2---------2--2---2---3---|
|--0--0---0---0---------0--0---0---1---|
p.m..........	p.m..........


Riff 5				         x3
|----------------------------------------------------|
|----------------------------------------------------|
|----------------------------------------------------|
|--9--10--9--8--9--8--7--8--7------------------------|
|------------------------------8--7--9--8--7--10--9--|
|----------------------------------------------------|
E5				 				 F5

4th time
|-------------------------------------------------------|
|-------------------------------------------------------|
|-------------------------------------------------------|
|--11--12--11--10--11--10--9--10--9--8--9--8--78trill---|
|-------------------------------------------------------|
|-------------------------------------------------------|
G5			    					G#5


Riff 6						fill
|--------------------------------------|-----------|
|--------------------------------------|-----------|
|--------------------------------------|----7------|
|-----------------------------------4--|----7------|
|--2-2--2-2--2-2---5-4-2-5-4-2-2-2--2--|-----------|
|--0-0--0-0--0-0---3-2-0-3-2-0-0-0-----|-----------|
Comments