Thorrs Hammer - Dommedagsnatt Chords & Tabs

 

Dommedagsnatt Chords & Tabs

Thorrs Hammer Chords & Tabs

Version: 1 Type: Tab 0 ratings
1 star 2 stars 3 stars 4 stars 5 stars
comments

Dommedagsnatt Tab

Author/Artist: THORR'S HAMMER
Title: DOMMEDAGSNATT
Album: DOMMEDAGSNATT
Transcribed by: KERNOUS
Email: KERNOUS@RELAPSECULT.COM
[ Tab from: http://www.guitartabs.cc/tabs/t/thorrs_hammer/dommedagsnatt_tab.html ]
TUNE DOWN 3 1/2 STEPS.LISTEN TO SONG FOR TIMING.YOU CAN PLAY IT 3 STEPS DOWN
EASIER BUT I PLAY IT ON A SEVEN STRING TUNE DOWNED 1 STEP SO THIS IS HOW I
PLAY IT.
   riff1
-|---------------------------------|
-|---------------------------------|
-|---------------------------------|
-|-3-3-6-8-7---7---3-3-6-8-7b/\r---|
-|-3-3-4-6-5---5---3-3-4-6-5b/\r---|
-|-1-1-------------1-1-------------|
  p.m.             . .
   riff2
-|---------------------------------|
-|---------------------------------|
-|-----5-4-------------5-4---------|
-|-3-3-3-2-4-------3-3-3-2-4---8---|
-|-3-3-----4-------3-3-----4---6---|
-|-1-1-----2-------1-1-----2-------|
  p.m.             . .
   riff3
-|-----------------------------------------------------------------|
-|-----------------------------------------------------------------|
-|-----6-------6-------5-------5-----------------------------------|
-|-3-3-4---3-3-4---3-3-3---3-3-3---3-3-7---3-3-7---3-3-6---3-3-6---|
-|-3-3-----3-3-----3-3-----3-3-----3-3-5---3-3-5---3-3-4---3-3-4---|
-|-1-1-----1-1-----1-1-----1-1-----1-1-----1-1-----1-1-----1-1-----|
  p.m.     . .     . .     . .     . .     . .     . .     . .
   riff4
-|-----------------------------------------------------------------|
-|----/6~-----/6~-----/5~-----/5~----------------------------------|
-|------------------------------------/7~-----/7~-----/6~----/6~---|
-|-3-3-----3-3-----3-3-----3-3-----3-3-----3-3-----3-3-----3-3-----|
-|-3-3-----3-3-----3-3-----3-3-----3-3-----3-3-----3-3-----3-3-----|
-|-1-1-----1-1-----1-1-----1-1-----1-1-----1-1-----1-1-----1-1-----|

   riff5
-|----------------------------------------------------|
-|----------------------------------------------------|
-|----------------------------------------------------|
-|-3-----------/9-------8-------5-------4-------3-3-3-|
-|-3-----------/9-------8-------5-------4-------3-3-3-|
-|-1-----------/7-------6-------3-------2-------1-1-1-|
                                               pm . .
   fill1   fill2
-|-------|-------|
-|-------|-------|
-|-------|-------|
-|-3-----|-3-3-3-|
-|-3-----|-3-3-3-|
-|-1-----|-1-1-1-|
          pm . .
Comments