Thorpe Billy - Children Of The Sun Chords & Tabs

 

Children Of The Sun Chords & Tabs

Thorpe Billy Chords & Tabs

Version: 1 Type: Tab 0 ratings
1 star 2 stars 3 stars 4 stars 5 stars
comments

Children Of The Sun Tab

   
Children of the Sun
Artist: Billy Thorpe
Tabbed by: J.P. Mensching

Key:
------   -------  ------  --x--   -------
------   -------  ------  --x--   -------
-5b7--    5~~~~~  5/7---  --x--   --5b7r5
------   -------  ------  --x--   -------
------   -------  ------  --x--   -------
------   -------  ------  --x--   -------
Bend     Vibrato  Slide   Mute    Bend & Release


NOTE: All guitars use a chorus effect.

Riff 1 (1:00, fade in until 1:40)

   E5                      D5          A5
e-----x-x-x-x-----x-x-x-x-----x-x-x-x-----x-x-x-x-|
B-----x-x-x-x-----x-x-x-x-----x-x-x-x-----x-x-x-x-|
G-9---x x x x-9---x-x-x-x--7--x-x-x-x-----x-x-x-x-|
D-9---x x x x-9---x-x-x-x--7--x-x-x-x--7--x-x-x-x-|
A-7---x x x x-7---x-x-x-x--5--x-x-x-x--7--x-x-x-x-|
E-----x x x x-----x-x-x-x-----x-x-x-x--5--x-x-x-x-|
 

Riff 1a- Sometimes substitute for Riff 1

   E5          Em          D5         A5  
e----x-x-x-x--7--x-x-x-x-----x-x-x-x-----x-x-x-x|
B----x-x-x-x--8--x-x-x-x-----x-x-x-x-----x-x-x-x|
G-9--x-x-x-x--9--x-x-x-x--7--x-x-x-x-----x-x-x-x|
D-9--x-x-x-x--9--x-x-x-x--7--x-x-x-x--7--x-x-x-x|
A-7--x-x-x-x--7--x-x-x-x--5--x-x-x-x--7--x-x-x-x|
E----x-x-x-x-----x-x-x-x-----x-x-x-x--5--x-x-x-x|



Use Riffs 1 and 1a for all of the verses and choruses.


Fill 1 (3:35)
[ Tab from: http://www.guitartabs.cc/tabs/t/thorpe_billy/children_of_the_sun_tab.html ]
   E5  
e------------------|
B------------------|
G---14b16r14-12----|
D---------------14-|
A------------------|
E------------------|
*Use whammy pedal, 1 octave up


Bridge (3:36)

   E5         D5
e----------------|
B----------------|
G--9----------5--|
D--9----------5--|
A--7----------7--|
E----------------|


Fill 2 (4:33)

   E5
e--------------------------------|
B--------------------------------|
G--------------------------------|
D--------------------------------|
A------7--9b11r9--7----11--9~~~~-|
E--7\9--------------9------------|
*Use slap-back delay

Fill 3 (4:37)

   E5
e-------------------------------|
B------5--7b9r7--5-----7--5~~~~~|
G--4\6--------------6-----------|
D-------------------------------|
A-------------------------------|
E-------------------------------|
*Use slap-back delay

Solo (4:50)

   E5                                          B5
e--------------------------------------------|------------------------------|
B-----------------14b15--14b15--14b15--------|--9b10--9b10--9b10------------|
G--9----14-12~~~--14b15--14b15--14b15--12----|--9b10--9b10--9b10--7---------|
D--9--------------------------------------14-|----------------------9~~~~~--|
A--7-----------------------------------------|------------------------------|
E--------------------------------------------|------------------------------|
 
 Play some other stuff in E Minor pentatonic.

Repeat Riffs 1 and 1a with fills 2 and 3 until fade.



Comments