Thorpe Billy - Cc Rider Chords & Tabs

 

Cc Rider Chords & Tabs

Thorpe Billy Chords & Tabs

Version: 1 Type: Tab 0 ratings
1 star 2 stars 3 stars 4 stars 5 stars
comments

Cc Rider Tab

hello i am writing this tab because i have noticed a surprising lack of billy thorpe 
tabs on the net, and because i think billy thorpe is good.

If you havent figured this out on your own then i better tell you now,
this tab is of billy thorpes LIVE version of
 CC RIDER from LIVE! AT SUNBURY, NOT the edited version released on the greatest
hits CD they released.(that version has all the solos edited out).
Any way, here it is...

main riff..
riff 1a
----------------------
----------------------
----------------------
----------------------   4 times
---5-5-5-5-5-5-7-5----
---3-3-6-7-3-3-3-3----

----------------------
----------------------
----------------------
---5-5-5-5-5-5-7-5----
---3-3-6-7-3-3-3-3----    
----------------------

----------------------
----------------------
----------------------
----------------------
---5-5-5-5-5-5-7-5----    2 times
---3-3-6-7-3-3-3-3----

----------------------
----------------------
----------------------
---7-7-7-7-7-7-9-7----
---5-5-8-9-5-5-5-5----    1 time
----------------------

----------------------
----------------------
----------------------
---5-5-5-5-5-5-7-5----
---3-3-6-7-3-3-3-3----    1 time
----------------------
[ Tab from: http://www.guitartabs.cc/tabs/t/thorpe_billy/cc_rider_tab.html ]
----------------------
----------------------
----------------------
----------------------   2 times
---5-5-5-5-5-5-7-5----
---3-3-6-7-3-3-3-3----

   that is the main riff. repeat as many times as necasary.

GUITAR SOLO! or some of it...


------------------------
---s6-6-6-6-6-6-6-6-6-6-
---s7-7-7-7-7-7-7-7-7-7-
------------------------
------------------------
------------------------ 2 times.

There is a heap more other stuff there in g minor. i just lib most of it,
but anyone does have the full tab for the solo could you please email it
to me? I would appreciate it much.thankyou. my email address is 
livewire284@hotmail.com

final solo=
---15-15-15-15-15-15-15-15-15--
---b18b18b18b18b18b18b18b18b18- 
-------------------------------
-------------------------------
-------------------------------
-------------------------------  do this FAST, the lib some more solo in
                                 g minor. Again if any one has the tab 
                             for the rest of this solo please email it to me. Thanks.


this tab was done by me jeff lewis, if you have any questions,comments 
or would like to send me the tab for solos,
please send them  to livewire284@hotmail.com

enjoy yourself and your guitar playing! :)

Comments