Thorns - Existence Chords & Tabs

 

Existence Chords & Tabs

Thorns Chords & Tabs

Version: 1 Type: Tab 0 ratings
1 star 2 stars 3 stars 4 stars 5 stars
comments

Existence Tab

Band: Thorns
Album: Thorns
Song: Existence

Transcribed By: Pablo1349


.  - palm mute           /  - slide up to
\  - slide down to       ~  - vibrato
h  - hammer on           b  - Bend
p  - pull off            Suffixes for bend
t  - tap                 f  - full bend    h - half bend
ph - pinched harmonic    q  - quarter bend t - tap bend
*  - see comment         ^  - Hold bend    r release bend
x  - Stuccatto           ~  - vibrato bend
,  - slight palm mute    () - ghost note, sustained note
"  - tremolo note        <> - Trill

D I S C I P L I N E ,  D I S C I P L I N E ,  D I S C I P L I N E

Standar Tunning



Intro:

|---------------------------------------------7-|
|-------------------------------------------8---|
|---------------------------------------9-------|
|-----------------------------------9-----------|x4
|--------------------------7---10---------------|
|-7------8-6------8-7---------------------------|
  "      " "      " "      "   "    "   "   " "


|----------------------|
|----------------------|
|----------------------|
|-----9----9---8---7---|
|-2---7----7---6---5---|x4
|-0--------------------|
      "    "   "   "

|---------------------------------------------7-|
|-------------------------------------------8---|
|---------------------------------------9-------|
|-----------------------------------9-----------|x2
|--------------------------7---10---------------|
|-7------8-6------8-7---------------------------|
  "      " "      " "      "   "    "   "   " "

(Silence... Snorre speaks)



Verse:


|----------------|   |----------------|
|----------------|   |----------------|
|-------------4--|   |-------------8--|
|------------(4)-|x4 |------------(8)-|x4
|-3----3-3----2--|   |-7----7-7----6--|
|-1----1-1-------|   |-5----5-5-------|


|----------------|   |----------------|
|----------------|   |----------------|
|-------------4--|   |-------------8--|
|------------(4)-|x4 |------------(8)-|x4
|-3----3-3----2--|   |-7----7-7----6--|
|-1----1-1-------|   |-5----5-5-------|


|----------------|
|----------------|
|-------------3--|
|------------(3)-|x4
|-2----2-2----1--|
|-0----0-0-------|


|---------------------------------------------7-|
|-------------------------------------------8---|
|---------------------------------------9-------|
|-----------------------------------9-----------|x4
|--------------------------7---10---------------|
|-7------8-6------8-7---------------------------|
  "      " "      " "      "   "    "   "   " "

[ Tab from: http://www.guitartabs.cc/tabs/t/thorns/existence_tab.html ]
|----------------|   |----------------|
|----------------|   |----------------|
|-------------4--|   |-------------8--|
|------------(4)-|x4 |------------(8)-|x4
|-3----3-3----2--|   |-7----7-7----6--|
|-1----1-1-------|   |-5----5-5-------|


|----------------|   |----------------|
|----------------|   |----------------|
|-------------4--|   |-------------8--|
|------------(4)-|x4 |------------(8)-|x4
|-3----3-3----2--|   |-7----7-7----6--|
|-1----1-1-------|   |-5----5-5-------|


|----------------|
|----------------|
|-------------3--|
|------------(3)-|x4
|-2----2-2----1--|
|-0----0-0-------|


|----------------------|
|----------------------|
|----------------------|
|-----9----9---8---7---|
|-2---7----7---6---5---|x4
|-0--------------------|
      "    "   "   "

Half Time


|----------------------|
|----------------------|
|----------------------|
|----------------------|
|----Snorre Speaks-----|
|-0--------------------|
  "

**
|--------------------------------------------------------------|
|--------------------------------------------------------------|
|--------4-------------5-5--4-4--------------4-4-3-3--5-5-4-4--|
|--------2-------------3-3--2-2--------------2-2-1-1--3-3-2-2--|
|--------2-------------3-3--2-2--------------2-2-1-1--3-3-2-2--|
|-000000----0000000000-----------0000000000--------------------|
  ......    ..........           ..........


|-------------------|
|-------------------|
|------5-------7--8-|
|------3-------5--6-|
|------3-------5--6-|x4  Repeat Since **
|-0000----0000------|
  ....    ....


|-------------------|
|-------------------|
|------4--3---3/4/5-|
|------2--1---1/2/3-|
|------2--1---1/2/3-|
|-0000------0-------|
  ....      .


|--------------------------------------------------------------|
|--------------------------------------------------------------|
|--------4-------------5-5--4-4--------------4-4-3-3--5-5-4-4--|
|--------2-------------3-3--2-2--------------2-2-1-1--3-3-2-2--|
|--------2-------------3-3--2-2--------------2-2-1-1--3-3-2-2--|
|-000000----0000000000-----------0000000000--------------------|
  ......    ..........           ..........


|-------------------|
|-------------------|
|------5-------7--8-|
|------3-------5--6-|
|------3-------5--6-|x4 Repeat Since **
|-0000----0000------|
  ....    ....

|-------------------|
|-------------------|
|-------------------|
|-------<9-8>-------|Guit. 1
|-------<8-7>-------|Guit. 2
|-0000--------------|
  ....

|-------------------|
|-------------------|
|------4--3---3/4/5-|
|------2--1---1/2/3-|
|------2--1---1/2/3-|
|-0000------0-------|
  ....      .

END
Comments