Thornley - So Far So Good Chords & Tabs

 

So Far So Good Chords & Tabs

Thornley Chords & Tabs

Version: 2 Type: Tab 0 ratings
1 star 2 stars 3 stars 4 stars 5 stars
comments

So Far So Good Tab

   
-------------------------------------------------------------------------------
			     So Far So Good-Thornley
-------------------------------------------------------------------------------
Tabbed by: Riff_Shredder
Email: capeacheo@hotmail.com

This is a great song...with some very "odd" tunning...Thornley is a great band
Big Wreck kicked ass too...Please don't copy this for other sites or use with-
out the writer's permission.
This is the best I can do...the tabbing is write...it's just the timming thats
off...so you're going to have to do that one.

Tuning:(From Low To High) Cb-Gb-Db-Bb-Db (Yes it's all flats)

(Intro / With Distortion) (Both Guitars)
e|---------------------------------------------------------------------------|
B|---------------------------------------------------------------------------|
G|---------------------------------------------------------------------------|
D|---------------------------------------------------------------------------|
A|-2---0-2---0---2----0--(Pm.............)-----------------------------------|
E|-2---0-2---0---2----0---2-0-2-3-2-0-2-3------------------------------------|

e|---------------------------------------------------------------------------|
B|---------------------------------------------------------------------------|
G|---------------------------------------------------------------------------|
D|---------------------------------------------------------------------------|
A|-2---0--2---0---2---0----(Pm.....)-----------------------------------------|
E|-2---0--2---0---2---0-----2-0-2-3------------------------------------------|

(Verse 1 / Clean Tone)
(1st Guitar)
e|--------------------------------12-----------------------------------------|
B|--8---8-7--7/8---7--7--7---12---------------7--8--------7------------------|
G|-----------7/9---7------------------12---9----------------------7----------|
D|---------------------------------------------------------------------------|
A|---------------------------------------------------------------------------|
E|---------------------------------------------------------------------------|

e|---------------------------------------------------------------------------|
B|--8---8--7-------------7--------------------7------------------------------|
G|-------------7--9----------7-----7-----9-----------------------------------|
D|---------------------------------------------------------------------------|
A|---------------------------------------------------------------------------|
E|---------------------------------------------------------------------------|

e|---------------------------------------------------------------------------|
B|--8---8--7-------------7---------8--8--8-----7------------7----------------|
G|-------------7--9----------7--------------9-------9------------7-----------|
D|---------------------------------------------------------------------------|
A|---------------------------------------------------------------------------|
E|---------------------------------------------------------------------------|

e|---------------------------------------------------------------------------|
B|--8---8--7-----7--8--8----7------------------------------------------------|
G|-------------------------------7--7--7--7--7--7--7--7--7--7--7--7--7--7--7-|
D|---------------------------------------------------------------------------|
A|---------------------------------------------------------------------------|
E|---------------------------------------------------------------------------|

(Verse 1 / 2nd Guitar - Clean Tone / Acoustic)
e|-0-0-0-0----0-0-0-0-0-0-0-0-0-0-0---0-0-0-0----0-0-0-0-0-0-0-0-0-0-0-------|
B|-0-0-0-0----0-0-0-0-0-0-0-0-0-0-0---0-0-0-0----0-0-0-0-0-0-0-0-0-0-0-------|
G|-0-0-0-0----0-0-0-0-0-0-0-0-0-0-0---0-0-0-0----0-0-0-0-0-0-0-0-0-0-0-------|
D|-4-4-4-4----4-0-0-0-0-0-0-0-0-0-0---4-4-4-4----4-0-0-0-0-0-0-0-0-0-0-------|
A|-4-4-4-4----4-0-0-0-0-0-0-0-0-0-0---4-4-4-4----4-0-0-0-0-0-0-0-0-0-0-------|
E|-4-4-4-4----4-0-0-0-0-0-0-0-0-0-0---4-4-4-4----4-0-0-0-0-0-0-0-0-0-0-------|

e|-0-0-0-0----0-0-0-0-0-0-0-0-0-0-0---0-0-0-0----0-0-0-0-0-0-0-0-0-0-0-------|
B|-0-0-0-0----0-0-0-0-0-0-0-0-0-0-0---0-0-0-0----0-0-0-0-0-0-0-0-0-0-0-------|
G|-0-0-0-0----0-0-0-0-0-0-0-0-0-0-0---0-0-0-0----0-0-0-0-0-0-0-0-0-0-0-------|
D|-4-4-4-4----4-0-0-0-0-0-0-0-0-0-0---2-2-2-2----2-2-2-2-2-2-2-2-2-2-2-------|
A|-4-4-4-4----4-0-0-0-0-0-0-0-0-0-0---2-2-2-2----2-2-2-2-2-2-2-2-2-2-2-------|
E|-4-4-4-4----4-0-0-0-0-0-0-0-0-0-0---2-2-2-2----2-2-2-2-2-2-2-2-2-2-2-------|

(Pre-Chorus / With Distortion)  (Both Guitars)
e|------------------      ---------------------------------------------------|
B|------------------      ---------------------------------------------------|
G|------------------      ---------------------------------------------------|
D|--4-4-4-4--------- x 3  ---------------------------------------------------|
A|--4-4-4-4--0------      ----2--2--2--2--2--2--2--2-------------------------|
E|--4-4-4-4--0------      ----2--2--2--2--2--2--2--2-------------------------|
                                (Pm...........)
(Chorus / Clean Tone / 2nd Guitar)
e|-------0----------------0---------------------0-------------------0--------|
B|-----------0------------------0---------------------0--------------------0-|
G|--0----------------2----------------------------------------5--------------|
D|----------------------------------------4----------------------------------|
A|---------------------------------------------------------------------------|
E|---------------------------------------------------------------------------|

e|------0--------------0-----------0-----------------------------------------|
B|----------0--------------0-------------0-----------------------------------|
G|--0-------------2----------------------------------------------------------|
D|---------------------------------------------------------------------------|
A|---------------------------------------------------------------------------|
E|---------------------------------------------------------------------------|

(Chorus / Distortion / 1st Guitar)
e|---------------------------------------------------------------------------|
B|---------------------------------------------------------------------------|
G|---------------------------------------------------------------------------|
D|---------------------------------------------------------------------------|
A|---4--4--4--4--7--7--7--7--2--2--2--2--9--9--9--9--------------------------|
E|---4--4--4--4--7--7--7--7--2--2--2--2--9--9--9--9--------------------------|

e|---------------------------------------------------------------------------|
B|----------------------------------------------8--8--8--8-------------------|
G|----------------------------------------------x--x--x--x-------------------|
D|----------------------------------------------5--5--5--5-------------------|
A|---4--4--4--4--7--7--7--7--2--2-2-----0------------------------------------|
E|---4--4--4--4--7--7--7--7--2--2-2-----0------------------------------------|


(Verse 2 / Clean Tone / Guitar 1)
e|--------------------------------12-----------------------------------------|
B|--8---8-7--7/8---7--7--7---12---------------7--8--------7------------------|
G|-----------7/9---7------------------12---9----------------------7----------|
D|---------------------------------------------------------------------------|
A|---------------------------------------------------------------------------|
E|---------------------------------------------------------------------------|

e|---------------------------------------------------------------------------|
B|--8---8--7-------------7--------------------7------------------------------|
G|-------------7--9----------7-----7-----9-----------------------------------|
D|---------------------------------------------------------------------------|
A|---------------------------------------------------------------------------|
E|---------------------------------------------------------------------------|

e|---------------------------------------------------------------------------|
B|--8---8--7-------------7---------8--8--8-----7------------7----------------|
G|-------------7--9----------7--------------9-------9------------7-----------|
D|---------------------------------------------------------------------------|
A|---------------------------------------------------------------------------|
E|---------------------------------------------------------------------------|
[ Tab from: http://www.guitartabs.cc/tabs/t/thornley/so_far_so_good_tab_ver_2.html ]
e|---------------------------------------------------------------------------|
B|--8---8--7-----7--8--8----7------------------------------------------------|
G|-------------------------------7--7--7--7--7--7--7--7--7--7--7--7--7--7--7-|
D|---------------------------------------------------------------------------|
A|---------------------------------------------------------------------------|
E|---------------------------------------------------------------------------|

(Verse 2 / 2nd Guitar - Clean Tone / Acoustic)
e|-0-0-0-0----0-0-0-0-0-0-0-0-0-0-0---0-0-0-0----0-0-0-0-0-0-0-0-0-0-0-------|
B|-0-0-0-0----0-0-0-0-0-0-0-0-0-0-0---0-0-0-0----0-0-0-0-0-0-0-0-0-0-0-------|
G|-0-0-0-0----0-0-0-0-0-0-0-0-0-0-0---0-0-0-0----0-0-0-0-0-0-0-0-0-0-0-------|
D|-4-4-4-4----4-0-0-0-0-0-0-0-0-0-0---4-4-4-4----4-0-0-0-0-0-0-0-0-0-0-------|
A|-4-4-4-4----4-0-0-0-0-0-0-0-0-0-0---4-4-4-4----4-0-0-0-0-0-0-0-0-0-0-------|
E|-4-4-4-4----4-0-0-0-0-0-0-0-0-0-0---4-4-4-4----4-0-0-0-0-0-0-0-0-0-0-------|

e|-0-0-0-0----0-0-0-0-0-0-0-0-0-0-0---0-0-0-0----0-0-0-0-0-0-0-0-0-0-0-------|
B|-0-0-0-0----0-0-0-0-0-0-0-0-0-0-0---0-0-0-0----0-0-0-0-0-0-0-0-0-0-0-------|
G|-0-0-0-0----0-0-0-0-0-0-0-0-0-0-0---0-0-0-0----0-0-0-0-0-0-0-0-0-0-0-------|
D|-4-4-4-4----4-0-0-0-0-0-0-0-0-0-0---2-2-2-2----2-2-2-2-2-2-2-2-2-2-2-------|
A|-4-4-4-4----4-0-0-0-0-0-0-0-0-0-0---2-2-2-2----2-2-2-2-2-2-2-2-2-2-2-------|
E|-4-4-4-4----4-0-0-0-0-0-0-0-0-0-0---2-2-2-2----2-2-2-2-2-2-2-2-2-2-2-------|

(Pre-Chorus / With Distortion)  (Both Guitars)
e|------------------      ---------------------------------------------------|
B|------------------      ---------------------------------------------------|
G|------------------      ---------------------------------------------------|
D|--4-4-4-4--------- x 3  ---------------------------------------------------|
A|--4-4-4-4--0------      ----2--2--2--2--2--2--2--2-------------------------|
E|--4-4-4-4--0------      ----2--2--2--2--2--2--2--2-------------------------|
                                (Pm...........)
(Chorus / Clean Tone / 2nd Guitar)
e|-------0----------------0---------------------0-------------------0--------|
B|-----------0------------------0---------------------0--------------------0-|
G|--0----------------2----------------------------------------5--------------|
D|----------------------------------------4----------------------------------|
A|---------------------------------------------------------------------------|
E|---------------------------------------------------------------------------|

e|------0--------------0-----------0-----------------------------------------|
B|----------0--------------0-------------0-----------------------------------|
G|--0-------------2----------------------------------------------------------|
D|---------------------------------------------------------------------------|
A|---------------------------------------------------------------------------|
E|---------------------------------------------------------------------------|

(Chorus / Distortion / 1st Guitar)
e|---------------------------------------------------------------------------|
B|---------------------------------------------------------------------------|
G|---------------------------------------------------------------------------|
D|---------------------------------------------------------------------------|
A|---4--4--4--4--7--7--7--7--2--2--2--2--9--9--9--9--------------------------|
E|---4--4--4--4--7--7--7--7--2--2--2--2--9--9--9--9--------------------------|

e|---------------------------------------------------------------------------|
B|----------------------------------------------8--8--8--8-------------------|
G|----------------------------------------------x--x--x--x-------------------|
D|----------------------------------------------5--5--5--5-------------------|
A|---4--4--4--4--7--7--7--7--2--2-2-----0------------------------------------|
E|---4--4--4--4--7--7--7--7--2--2-2-----0------------------------------------|

(Interlude / Distortion / 1 guitar)
e|---------------------------------------------------------------------------|
B|---------------------------------------------------------------------------|
G|---/5---4\2---/5---4\2---/5---4\2---/5----4/2---5\4/5/7---5/4\5/7----------|
D|---------------------------------------------------------------------------|
A|---------------------------------------------------------------------------|
E|---------------------------------------------------------------------------|

e|---------------------------------------------------------------------------|
B|---------------------------------------------------------------------------|
G|---/5---4\2---/5---4\2---/5---4\2---/5----4/2---5\4/5/7--------------------|
D|---------------------------------------------------------------------------|
A|---------------------------------------------------------------------------|
E|---------------------------------------------------------------------------|

(Pre-Chorus / With Distortion)  (Both Guitars)
e|------------------      ---------------------------------------------------|
B|------------------      ---------------------------------------------------|
G|------------------      ---------------------------------------------------|
D|--4-4-4-4--------- x 3  ---------------------------------------------------|
A|--4-4-4-4--0------      ----2--2--2--2--2--2--2--2-------------------------|
E|--4-4-4-4--0------      ----2--2--2--2--2--2--2--2-------------------------|
                                (Pm...........)

(Chorus / Clean Tone / 2nd Guitar)  (x2)
e|-------0----------------0---------------------0-------------------0--------|
B|-----------0------------------0---------------------0--------------------0-|
G|--0----------------2----------------------------------------5--------------|
D|----------------------------------------4----------------------------------|
A|---------------------------------------------------------------------------|
E|---------------------------------------------------------------------------|

e|------0--------------0-----------0-----------------------------------------|
B|----------0--------------0-------------0-----------------------------------|
G|--0-------------2----------------------------------------------------------|
D|---------------------------------------------------------------------------|
A|---------------------------------------------------------------------------|
E|---------------------------------------------------------------------------|

(Chorus / Distortion / 1st Guitar)
e|---------------------------------------------------------------------------|
B|---------------------------------------------------------------------------|
G|---------------------------------------------------------------------------|
D|---------------------------------------------------------------------------|
A|---4--4--4--4--7--7--7--7--2--2--2--2--9--9--9--9--------------------------|
E|---4--4--4--4--7--7--7--7--2--2--2--2--9--9--9--9--------------------------|

e|---------------------------------------------------------------------------|
B|----------------------------------------------8--8--8--8-------------------|
G|----------------------------------------------x--x--x--x-------------------|
D|----------------------------------------------5--5--5--5-------------------|
A|---4--4--4--4--7--7--7--7--2--2-2-----0------------------------------------|
E|---4--4--4--4--7--7--7--7--2--2-2-----0------------------------------------|

e|---------------------------------------------------------------------------|
B|---------------------------------------------------------------------------|
G|---------------------------------------------------------------------------|
D|---------------------------------------------------------------------------|
A|-2---0-2---0---2----0--(Pm.............)-----------------------------------|
E|-2---0-2---0---2----0---2-0-2-3-2-0-2-3------------------------------------|

e|---------------------------------------------------------------------------|
B|---------------------------------------------------------------------------|
G|---------------------------------------------------------------------------|
D|---------------------------------------------------------------------------|
A|-2---0--2---0---2---0----(Pm.....)-----------------------------------------|
E|-2---0--2---0---2---0-----2-0-2-3------------------------------------------|


(Order)
-Intro
-Verse 1
-Pre-Chorus
-Chorus
-Verse 2
-Pre-Chorus
-Chorus
-Interlude
-Pre-Chorus
-Chorus x 2
-Intro


| /  slide up
| \  slide down
| h  hammer-on
| p  pull-off
| ~  vibrato
| +  harmonic
| x  Mute note
===============================================================================
Comments