Thornley - So Far So Good Chords & Tabs

 

So Far So Good Chords & Tabs

Thornley Chords & Tabs

Version: 1 Type: Tab 0 ratings
1 star 2 stars 3 stars 4 stars 5 stars
comments

So Far So Good Tab

   
-----------------------------------------------------------------------------
			   So Far So Good - Thornley
-----------------------------------------------------------------------------
Artist: Thornley
Album: Come Again
Tabbed by: PhoenixSkulider	
Email: skulider22@incamail.com

Tuning:E B G B F# B 
w/distortion

   I'm pretty sure this is right. I welcome corrections, this is my first attempt at tabbing. 
[ Tab from: http://www.guitartabs.cc/tabs/t/thornley/so_far_so_good_tab.html ]
e|-------------------------| |--------------------|
B|-------------------------| |--------------------|
G|-------------------------| |--------------------|
B|--2---0--2--0--2--0---| |-2-0-2-0-2-0-2-0----|
F#|-2---0--2--0--2--0---| |-2-0-2-0-2-0-2-0----|
B|--2---0--2--0--2--0---| |-2-0-2-0-2-0-2-0----|
                            x x x x x x x x

e|-------------------------||--------------------------|
B|-------------------------||--------------------------|
G|-------------------------||--------------------------|
B|--2---0--2--0--2--0------||-----2-0-2-0--------------|
F#|-2---0--2--0--2--0------||-----2-0-2-0--------------|
B|--2---0--2--0--2--0------||-----2-0-2-0--------------|
		                  x x x x
This is all I have right now, i'll finish when I figure the rest out.
If someone else wants to finish it, feel free

| /  slide up
| \  slide down
| h  hammer-on
| p  pull-off
| ~  vibrato
| +  harmonic
| x  Mute note
=============================================================================
Comments