Thornley - Lies That I Believe Chords & Tabs

 

Lies That I Believe Chords & Tabs

Thornley Chords & Tabs

Version: 2 Type: Tab 0 ratings
1 star 2 stars 3 stars 4 stars 5 stars
comments

Lies That I Believe Tab

   
-------------------------------------------------------------------------------
		THE LIES THAT I BELIEVE - Thornley
-------------------------------------------------------------------------------

Tabbed by: Tyler Greig
Email: gtheleadguitarist@hotmail.com


| /  slide up
| \  slide down
| h  hammer-on
| p  pull-off
| v  vibrato
| *  harmonic
| x  Mute note or rake
| b  bend
| r  release bend
| ~  let ring


Tuning: Drop d, 1 1/2 steps down (b F# b E G# C#)

Acoustic intro
|--------------------------------------------------5-----------------5---------|
|------------------12--------------------12------------------------------------|
|--12-9-11----12-9-------12-9-11----12-9-------6-7------6-7-6----6-7------6-7-6|
|9----------9----------9----------9----------7--------7--------7--------7------|
|------------------------------------------------------------------------------|
|------------------------------------------------------------------------------| x2

Intro 2 (distorted)
|----------------------------------------------------|
|----------------------------------------------------|
|----------------------------------------------------|
|----------------------------------------------------|
|-------5------------5------------4------------4-----|
|-2-4-5---5-4--2-4-5---5-4--2-4-5---5-4--2-4-5---5-4-| x2


Verse (with wah)
|------------------------------------------------------------|
|------------------------------------------------------------|
|------------------------------------------------------------|
|-2--4--5--2----2--4--5--2----2--4--5--7----2--4--5--7----5\-|
|-2--4--5--2----2--4--5--2----2--4--5--7----2--4--5--7----5\-|
|-2--4--5--2----2--4--5--2----2--4--5--7----2--4--5--7----5\-| x2
PM.  .  .  .    .  .  .  .    .  .  .  .    .  .  .  .


-Intro 2


Chorus
 The lies...simple,      The lies...true
|------------------------------------------------|
|-3~---------------------------------------------|
|-2~---------------------------------------------|
|-0~-----------7~-------5~-----------7~----x-9---|
|-0~-----------7~-------5~-----------7~----x-9---|
|-0~-----------7~---6v--5~-----------7~----x-9---| x2
                                             ^Play this only first time

-Verse
-Intro 2
-Chorus


Bridge (Everyone uses, everyone abuses...) Play palm 
muted notes as power chords if you want, I do.
|-----------------------------------------------------|
|-----------------------------------------------------|
|-----------------------------------------------------|
|-----------------------------------------------------|
|-------5------------5------------4------------4------|
|-2-4-5---5-4--2-4-5---5-4--2-4-5---5-4--2-4-5---5-4--| x2
PM. . .   . .  . . .   . .  . . .   . .  . . .   . .
[ Tab from: http://www.guitartabs.cc/tabs/t/thornley/lies_that_i_believe_tab_ver_2.html ]
Solo 1 (with Intro 2 as rhythm)                            V slow bend
|----------------------|   |-------------------------------------------|
|----------------------|   |-10-10-8-x-10-10-8-x-10-10-8--10b11r-10b12-|
|-12v------------------|   |--9--9-9-x--9--9-9-x--9--9-9---------------|
|-----13p12p10---------|   |-------------------------------------------|
|--------------13p11p9-|   |-------------------------------------------|
|----------------------|x4 |-------------------------------------------|

|----------------------|   |--------------------------------------|
|----------------------|   |--------------------------------------|
|-12v------------------|   |-16-17b19-16-14-----16-17b19-16-14----|
|-----13p12p10---------|   |----------------14-----------------14-|
|--------------13p11p9-|   |--------------------------------------|
|----------------------|x2 |--------------------------------------|

|-/17-17-17-17-17-17-17---/17-17-17-17-17-17-17----/17--/17--/17--/17\-|
|-/16-16-16-16-16-16-16---/16-16-16-16-16-16-16----/16--/16--/16--/16\-|
|----------------------------------------------------------------------|
|----------------------------------------------------------------------|
|----------------------------------------------------------------------|
|-----------------------0-----------------------0----------------------|
PM                      .                       .
 
-Chorus

Solo 2 (with chorus as rhythm) I was limited by my 21-fret crap
guitar, but it should be mostly right.

|-------21b--------21b--21b22r21-19-17-21v--22b24-21-|-17-17b19-19--|
|-17h19------17h19-----------------------------------|--------------|
|----------------------------------------------------|-This part 4x-|
|----------------------------------------------------|--------------|
|----------------------------------------------------|--------------|
|----------------------------------------------------|--------------|

|-24~-21-19-17----------------------------------------17-21v--|
|--------------17----------------------------------19---------|
|-----------------19-18----------------------18-21------------|
|-----------------------19-----------14-16-18-----------------|
|--------------------------19-16--17--------------------------|
|-------------------------------------------------------------|

|--17b-----------17b--------------21b22r21-----19-21-21b22r21-22b23r22-24b25r24-|
|------20-19--20-----20-19--17-19----------20-----------------------------------|
|-------------------------------------------------------------------------------|
|-------------------------------------------------------------------------------|
|-------------------------------------------------------------------------------|
|-------------------------------------------------------------------------------|

|-22v~--24b25r24-22v~--24b25r24-21v~--24b25r24-21v~--|
|----------------------------------------------------|
|----------------------------------------------------|
|----------------------------------------------------|
|----------------------------------------------------|
|----------------------------------------------------|


After solo
|----|
|----|
|----|
|-2~-|
|-2~-|
|-2~-| let fade

-Acoustic intro

End with (12-string arranged for 6):
|------5-|
|-----5--|
|----6---|
|---7----|
|--7-----|
|-7------|

If you have trouble fingering that, you might wanna just use
|------5-|
|-----5--|
|----6---|
|---7----|
|--x-----|
|-7------|

And you're finished :D 

===============================================================================
Comments