Thornley - Found Another Way Chords & Tabs

 

Found Another Way Chords & Tabs

Thornley Chords & Tabs

Version: 2 Type: Tab 0 ratings
1 star 2 stars 3 stars 4 stars 5 stars
comments

Found Another Way Tab

   
----------------------------------------------------------------------------
			FOUND ANOTHER WAY- Thornley
----------------------------------------------------------------------------

Tabbed by: Tyler Greig
Email: gtheleadguitarist@hotmail.com

Tuning: Drop B (B F# B E G# C#)

| /  slide up
| \  slide down
| h  hammer-on
| p  pull-off
| v  vibrato
| *  harmonic
| x  Mute note
| ~  let ring


Super song. I'm gonna do my best to tab it for one guitar. 


Intro                  V start slow bend here
|---------------------------------------------|
|-9-9-9-9-9-9-9-9-9-9-9-9-9-9-9-9-------------|
|--------------------------^release bend here-|
|---------------------------------------------|
|---------------------------------------------|
|---------------------------------------------|


Pre-verse
|---------------------------------------------------------|
|---------------------------------------------------------|
|---------1h2p1---------1h2p1---------1h2p1---------1h2p1-|
|-4-4-5-2-------4-4-5-2-------4-4-5-2-------4-4-5-2-------|
|-4-4-5-2-------4-4-5-2-------4-4-5-2-------4-4-5-2-------|
|-4-4-5-2-------4-4-5-2-------4-4-5-2-------4-4-5-2-------|


Verse part 1
|-------------------------------------------------|
|-------------------------------------------------|
|-------------------------------------------1h2p1-|
|--4-4-5-2----4-4-5-2----4-4-5-2----4-4-5-2-------|
|--4-4-5-2----4-4-5-2----4-4-5-2----4-4-5-2-------|
|--4-4-5-2----4-4-5-2----4-4-5-2----4-4-5-2-------|x2
PM . . . .    . . . .    . . . .    . . . . 
[ Tab from: http://www.guitartabs.cc/tabs/t/thornley/found_another_way_tab_ver_2.html ]
Verse part 2
|--------------------------------------------------------|         |----|
|---------------------x-9-9------------------------------|         |----|
|------------------------------------1h2p1---------1h2p1-|         |-4~-|
|-7-7-7-4----7-7-7-4---------4-4-5-2-------4-4-5-2-------|         |-4~-|
|-7-7-7-4----7-7-7-4---------4-4-5-2-------4-4-5-2-------|         |-2~-|
|-7-7-7-4----7-7-7-4---------4-4-5-2-------4-4-5-2 ------|x2 then: |----|

Chorus
 
|------------------------------|   |-------------------------|
|------------------------------|   |-------------------------|
|-6-6-6------------------------|   |-6-6-6-------------------|
|-6-6-6-2-2-2-2--7-7-7-4-4-4-4-|   |-6-6-6-2-2-2-2--7--7--4--|
|-4-4-4-2-2-2-2--7-7-7-4-4-4-4-|   |-4-4-4-2-2-2-2--7--7--4--|
|-------2-2-2-2--7-7-7-4-4-4-4-|x3 |-------2-2-2-2--7--7--4--|

Intro
Pre-verse
Verse part 1
Verse part 2
Chorus

Mod. Chorus
|----------------------|  |-------------------------|
|----------------------|  |-------------------------|
|-6-6-6----------------|  |-11-11-11-12-13----------|
|-6-6-6-2-2-2--7-6-5-4-|  |--x--x--x--x--x--7-6-5-4-|
|-4-4-4-2-2-2--7-6-5-4-|  |--9--9--9-10-11--7-6-5-4-|
|-------2-2-2--7-6-5-4-|x2|-----------------7-6-5-4-|x2
You can play the 2s up an octave if you want, that's what guitar 2 plays.



Intro
Verse part 1, but don't repeat
Verse part 2
Chorus 


Final Chorus
|-----------------------|  |-----------------------|
|-----------------------|  |-----------------------|
|-6-6-6-----------------|  |-6-6-6-----------------|
|-6-6-6-2-2-2-2-7-6-5-4-|  |-6-6-6-2-2-2-2-7--7--4-|
|-4-4-4-2-2-2-2-7-6-5-4-|  |-4-4-4-2-2-2-2-7--7--4-|
|-------2-2-2-2-7-6-5-4-|x3|-------2-2-2-2-7--7--4-|
Again, play the 2s up an octave if you want for guitar 2.


End with
|---|
|-9-|
|---|
|---|
|---|
|---|x32ish, listen to hear when to begin and release the slow bend.


End :)
============================================================================
Comments