Thornley - Falling To Peices Chords & Tabs

 

Falling To Peices Chords & Tabs

Thornley Chords & Tabs

Version: 1 Type: Tab 0 ratings
1 star 2 stars 3 stars 4 stars 5 stars
comments

Falling To Peices Tab

   
-------------------------------------------------------------------------------
			  falling to peices - thornley
-------------------------------------------------------------------------------
Tabbed by:brandonbray2002
Email:brandonbray2002@yahoo.com

Tuning:drop Low to high B-F#-B-E-F#-B

intro heavey guitar
|----------------------------------------------------------------------------------------|
|----------------------------------------------------------------------------------------|
|----------------------------------------------------------------------------------------|
|-----------4-------------4--------------------------------------------------------------|
|---h-------------------------reapeat this-----------------------------------------------|
|--1-0--0-------0-1-0--0-----------------------------------------------------------------|

heavey second guitar playing full chords
|---------------------------------------------------------------------------------------------|
|---------------------------------------------------------------------------------------------|
|------------h---------------h------------h----4-- this first time----------------------------|
|-0--0------1-0---0----4---0-1-0--0--4--0-1-0-----(0--0-0)----------reapeat-----12--------10--|
|-0--0------1-0---0--------0-1-0--0-----0-1-0-----(0--0-0)-----------------pm---------pm------|
|-0--0------1-0---0--------0-1-0--0-----0-1-0-----(0--0-0)----------------12-12-----10-10-----|

verse     "I SEE YOU COMMIN UP THE DRIVE"
|------------------------------------------------------|
|------pm----------------------------------------------|
|-(PALM MUTE               )  (PLAYED OPEN) -----------|
|-0--0-0----0--0-0----0--0-0----0--0--0----------------|
|-0--0-0----0--0-0----0--0-0----0--0--0-------REAPEAT--|
|-0--0-0----0--0-0----0--0-0----0--0--0----------------|


|-----------------------------------------------------------------------------------|
|-----------------------------------------------------------------------------------|
|( PALM MUTE THIS WHOLE PART   )-(THIS OPEN)---(palm mute            )--------------|
|-4--4-4-----4--4-4--4---3--3-3----3--3--3-----0--0-0--0-0-0---0--0-0---0-0---------|
|-4--4-4-----4--4-4--4---3--3-3----3--3--3-----0--0-0--0-0-0---0--0-0---0-0---------|
|-4--4-4-----4--4-4--4---3--3-3----3--3--3-----0--0-0--0-0-0---0--0-0---0-0---------|

chorus
      lyrics  "the rest of my life, is falling to peices"
|-----------------------------------------------------------------------------|
|-----------------------------------------------------------------------------|

-----------------h----------h------------h-------------h-----------------------|D--|
 7------5--------1-0----4--0-1-0----4---0-1-0----4----0-1-0---4--------------------|
|7////--5//////--1-0-------0-1-0--------0-1-0---------0-1-0------------------------|
|7------5--------1-0--0----0-1-0--0-----0-1-0--0------0-1-0-0----------------------|


|------------------------------------------------------------------------|
|------------------------------------------------------------------------|
|-----------h----------h-----------h-------------------------------------|
|-7----2----1-0---4--0-1-0----4--0-1-0---4--------------12-----------10--|
|-7///-2///-1-0------0-1-0-------0-1-0--------------pm----------pm-------|
|-7----2----1-0-0----0-1-0-0-----0-1-0-0-----0----12--12------10--10-----|


  2nd verse       "the waves keep crashing at my door"
|------------------------------------------------------|
|------pm----------------------------------------------|
|-(PALM MUTE               )  (PLAYED OPEN) -----------|
|-0--0-0----0--0-0----0--0-0----0--0--0----------------|
|-0--0-0----0--0-0----0--0-0----0--0--0-------REAPEAT--|
|-0--0-0----0--0-0----0--0-0----0--0--0----------------|


|-----------------------------------------------------------------------------------|
|-----------------------------------------------------------------------------------|
|( PALM MUTE THIS WHOLE PART   )-(THIS OPEN)---(palm mute            )--------------|
|-4--4-4-----4--4-4--4---3--3-3----3--3--3-----0--0-0--0-0-0---0--0-0---0-0---------|
|-4--4-4-----4--4-4--4---3--3-3----3--3--3-----0--0-0--0-0-0---0--0-0---0-0---------|
|-4--4-4-----4--4-4--4---3--3-3----3--3--3-----0--0-0--0-0-0---0--0-0---0-0---------|


 2nd chorus
      lyrics  "the rest of my life, is falling to peices"
|----------------------------------------------------------------|
|----------------------------------------------------------------|
|-----------------h----------h------------h-------------h--------|
|7------5--------1-0----4--0-1-0----4---0-1-0----4----0-1-0---4--|
|7////--5////----1-0-------0-1-0--------0-1-0---------0-1-0------|
|7------5--------1-0--0----0-1-0--0-----0-1-0--0------0-1-0-0----|

[ Tab from: http://www.guitartabs.cc/tabs/t/thornley/falling_to_peices_tab.html ]
|---------------------------------------------------------------------------------|
|---------------------------------------------------------------------------------|
|-----------h----------h-----------h-----------h----------------------------------|
|-7----2----1-0---4--0-1-0----4--0-1-0---4---0-1-0----4---------------------------|
|-7///-2///-1-0------0-1-0-------0-1-0-------0-1-0--------------------------------|
|-7----2----1-0-0----0-1-0-0-----0-1-0-0-----0-1-0--0-----------------------------|


    lyrics  "the rest of my life, is falling to peices"
|----------------------------------------------------------------|
|----------------------------------------------------------------|
|-----------------h----------h------------h-------------h--------|
|7------5--------1-0----4--0-1-0----4---0-1-0----4----0-1-0---4--|
|7////--5///////-1-0-------0-1-0--------0-1-0---------0-1-0------|
|7------5--------1-0--0----0-1-0--0-----0-1-0--0------0-1-0-0----|


interlude

|-----------------------------------------------------------------------------------------|
|-----------------------------------------------------------------------------------------|
|-----------------------------------------------------------------------------------------|
|--8----------12-13--15---10------15-16--17-----------------------------------------------|
|--8--//////--------------10/////--------------bend up fast many times--repeat this once--|
|--8----------------------10-----------------12-12--12-12-12------------------------------|


|----------------------------------------------------------------------|
|----------------------------------------------------------------------|
|----------------------------------------------------------------------|
|--8----------12-13--15---10------15-16--17----------------------------|
|--8--//////--------------10/////--------------------------------------|bend up
|--8----------------------10----------------------5555555555555555555--|


intro heavey guitar
|---------------------------------------------------------------------------------|
|---------------------------------------------------------------------------------|
|---------------------------------------------------------------------------------|
|-----------4-------------4------------4-----------0---0--------------------------|
|---h----------------------------------------------0---0--------------------------|
|--1-0--0-------0-1-0--0------0-1-0--0-----0-------0---0--------------------------|

heavey second guitar playing full chords
|--------------------------------------------------------|
|--------------------------------------------------------|
|------------h----------------h------------h----4-- -----|
|-------0--1-0-------4-------0-1-0-----4--0-1-0----0--0--|
|-------0--1-0---------------0-1-0--------0-1-0----0--0--|
|-------0--1-0---0------0----0-1-0--0-----0-1-0----0--0--|


last chorus
   lyrics  "the rest of my life, is falling to peices"
|----------------------------------------------------------------|
|----------------------------------------------------------------|
|-----------------h----------h------------h-------------h--------|
|7------5--------1-0----4--0-1-0----4---0-1-0----4----0-1-0---4--|
|7////--5////----1-0-------0-1-0--------0-1-0---------0-1-0------|
|7------5--------1-0--0----0-1-0--0-----0-1-0--0------0-1-0-0----|


|---------------------------------------------------------------------------------|
|---------------------------------------------------------------------------------|
|-----------h----------h-----------h-----------h----------------------------------|
|-7----2----1-0---4--0-1-0----4--0-1-0---4---0-1-0----4---------------------------|
|-7///-2///-1-0------0-1-0-------0-1-0-------0-1-0--------------------------------|
|-7----2----1-0-0----0-1-0-0-----0-1-0-0-----0-1-0--0-----------------------------|


    lyrics  "the rest of my life, is falling to peices"
|----------------------------------------------------------------|
|----------------------------------------------------------------|
|-----------------h----------h------------h-------------h--------|
|7------5--------1-0----4--0-1-0----4---0-1-0----4----0-1-0---4--|
|7////--5///////-1-0-------0-1-0--------0-1-0---------0-1-0------|
|7------5--------1-0--0----0-1-0--0-----0-1-0--0------0-1-0-0----|


|-------------------------------------------------------------------------------------|
|-------------------------------------------------------------------------------------|
|-------------------------------------------------------------------------------------|
|-7----2--------------------------------------------------------------12----------10--|
|-7///-2///---------------------------------------------------------------------------|
|-7----2-------------12//////////-------15//////////----0------12--12------10-10------|


thats the whole song, just play it from top to bottom, i tabbed out every part in order so you

dont have to jump back and forth
|
|
| h  hammer-on
| p  pull-off
| ~  vibrato
| +  harmonic
| x  Mute note
===============================================================================
Comments