Thornley - Easy Comes Chords & Tabs

 

Easy Comes Chords & Tabs

Thornley Chords & Tabs

Version: 1 Type: Tab 0 ratings
1 star 2 stars 3 stars 4 stars 5 stars
comments

Easy Comes Tab

   
-------------------------------------------------------------------------------
			     Easy Comes - Thornley
-------------------------------------------------------------------------------
Tabbed by: Cory Roche
Email: Core@shaw.ca	

Note: Thornley makes incredible music, this is probably one of my favorites by
      him, i didnt re write all the parts, but they are all there for the entire song!
      Enjoy! Drop me an Email with any questions or concerns!


Tuning: Dropped D a step and a half down ( B  B 


Intro/Verse

Gtr. 1 (fuzz muffled guitar)    Note* Play this till the first variation

					
e|-------------------------------------------------------------------------------|
B|-------------------------------------------------------------------------------|
G|-------------------------------------------------------------------------------|
D|-------------------------------------------------------------------------------|
A|-------------------------------------------------------------------------------|
D|-0-10-12-0-12-13-0-10-12-0-12-13-0-10-12--0-10-12-0-12-13-0-10-12-0-5-6-5-3-0--|


Gtr. 2 Intro (play once)
   PM--|				   PM---|
e|---------------------------------------------------------------------------|
B|---------------------------------------------------------------------------|
G|---------------------------------------------------------------------------|
D|---------------------------------------------------------------------------|
A|-0-0--------------------------------------0--0-----------------------------|
D|-0-0--------------------------------------0--0-----------------------------|



Gtr.1 Variation

("I got on my hands, I got on my Knees...")

[ Tab from: http://www.guitartabs.cc/tabs/t/thornley/easy_comes_tab.html ]
e|-------------------------------------------------------------------------------|
B|-------------------------------------------------------------------------------|
G|-------------------------------------------------------------------------------|
D|-------------------------------------------------------------------------------|
A|--------------------------------------9----------------------------------------|
D|-0-10-12-0-12-13-0-10-12-0-12-13-0-10----0-10-12-0-12-13-0-10-12-0-5-6-5-3-0---|



Pre- Chorus

Gtr.1 & 2
								 PM------|
e|---------------------------------------------------------------------------|
B|---------------------------------------------------------------------------|
G|---------------------------------------------------------------------------|
D|---------------------------------------------------------------------------|
A|--8-8-8-8-8-8-8-8---10-10-10-10-10-10-10-10--5-5-3-5-5-3-5-5-3--5-6-5-3----|
D|--8-8-8-8-8-8-8-8---10-10-10-10-10-10-10-10--5-5-3-5-5-3-5-5-3--5-6-5-3----|


Chorus

Gtr.1 $ 2
                         PM----|
e|--------------------------------|
B|--------------------------------|
G|--------------------------------|
D|--------------------------------|
A|-0-0--3-0-0--3-0-0--3-0-6-5-3---|
D|-0-0--3-0-0--3-0-0--3-0-6-5-3---|




Breakdown

("easy comes and easy go's...")
					   (play last time)
   PM         PM       PM         PM
e|-----------------------------------------|-------------------------------------------|
B|-----------------------------------------|-------------------------------------------|
G|------14\-------13\-------12\-------11\--|-------14\------15\------16\------17\------|
D|-----------------------------------------|-------------------------------------------|
A|-0-0--12\--0-0--11\--0-0--10\--0-0--9\---|--0-0--12\-0-0--13\-0-0--14\-0-0--15\------|
E|-0-0-------0-0-------0-0-------0-0-------|--0-0------0-0------0-0------0-0-----------|


Outro riff with double Bass

Gtr.1 & 2

PM--------------------------------|

e|----------------------------------|
B|----------------------------------|
G|----------------------------------|
D|----------------------------------|
A|-0-6-5-3-0-6-5-3-0-6-5-3-0-3-5-6--|
D|-0-6-5-3-0-6-5-3-0-6-5-3-0-3-5-6--|







| /  slide up
| \  slide down
| h  hammer-on
| p  pull-off
| ~  vibrato
| +  harmonic
| x  Mute note
===============================================================================
Comments