Thornley - Come Again Chords & Tabs

 

Come Again Chords & Tabs

Thornley Chords & Tabs

Version: 3 Type: Tab 0 ratings
1 star 2 stars 3 stars 4 stars 5 stars
comments

Come Again Tab

   
---------------------------------------------------------------------------
			     COME AGAIN- Thornley
----------------------------------------------------------------------------
Tabbed by: Tyler Greig
Email: gtheleadguitarist@hotmail.com

Tuning: Drop D
(I'm pretty sure they don't actually play it in drop d...but I don't like tuning down
just for one song, so, like every song I tab, this will be in drop d. I suspect it's
in Drop Db, so if you want to try that, just move everything up 1 fret. The only thing
that's off in drop d tuning is the 0's.)

INTRO 1
e|-----------------------------------------------------|
B|-----------------------------------------------------|
G|-----------------------------------------------------|
D|-6-8-8-6-0--0-6-8-8-6-0--0-6-8-8-6-0--0-6-8-8-6-0000-|
A|-6-8-8-6-0--0-6-8-8-6-0--0-6-8-8-6-0--0-6-8-8-6-0000-|
D|-6-8-8-6-0--0-6-8-8-6-0--0-6-8-8-6-0--0-6-8-8-6-0000-| x2
PM                                                ....

guitar 2
e|-------------------------------|
B|----14~-----14~-----14~--------|
G|-11------11------11------11----|
D|-------------------------------|
A|-------------------------------|
D|-------------------------------|

VERSE 1
e|-----------------------------------------------------|
B|-----------------------------------------------------|
G|-----------------------------------------------------|
D|-6-8-8-6-0--0-6-8-8-6-0--0-6-8-8-6-0--0-6-8-8-6-0000-|
A|-6-8-8-6-0--0-6-8-8-6-0--0-6-8-8-6-0--0-6-8-8-6-0000-|
D|-6-8-8-6-0--0-6-8-8-6-0--0-6-8-8-6-0--0-6-8-8-6-0000-| x4
PM ...................................................

PRE-CHORUS                                    
The second part's hard to get, and i'm pretty sure this is wrong, but it's how i
like to play it. With the right rhythm, it sounds pretty good.
e|---------------------------------------------------14--12-----11-(repeat)|
B|-------------------------------------------------11--11---11-------------|
G|-------------------------------------------------------------------------|
D|-6-6-6-0-6--6-6-6-0-6--6-6-6-0-6-6-0-6-6-0-6--0--------------------------|
A|-6-6-6-0-6--6-6-6-0-6--6-6-6-0-6-6-0-6-6-0-6--0--------------------------|
D|-6-6-6-0-6--6-6-6-0-6--6-6-6-0-6-6-0-6-6-0-6--0--------------------------|

CHORUS 1
e|---------------------------------------------------------------|
B|---------------------------------------------------------------|
G|-------------------------------66666666666666------------------|
D|-44444444444444-11111111111111-66666666666666-66666666666666---|
A|-44444444444444-11111111111111-44444444444444-66666666666666---|
D|-44444444444444-11111111111111----------------66666666666666---|

e|---------------------------------------------------------------|
B|---------------------------------------------------------------|
G|-------------------------------66666666666666------------------|
D|-44444444444444-11111111111111-66666666666666-66666666666668~--|
A|-44444444444444-11111111111111-44444444444444-66666666666668~--|
D|-44444444444444-11111111111111----------------66666666666668~--|

INTRO 1
e|-----------------------------------------------------|
B|-----------------------------------------------------|
G|-----------------------------------------------------|
D|-6-8-8-6-0--0-6-8-8-6-0--0-6-8-8-6-0--0-6-8-8-6-0000-|
A|-6-8-8-6-0--0-6-8-8-6-0--0-6-8-8-6-0--0-6-8-8-6-0000-|
D|-6-8-8-6-0--0-6-8-8-6-0--0-6-8-8-6-0--0-6-8-8-6-0000-| x1
PM                                                ....

VERSE 2
e|-----------------------------------------------------|
B|-----------------------------------------------------|
G|-----------------------------------------------------|
D|-6-8-8-6-0--0-6-8-8-6-0--0-6-8-8-6-0--0-6-8-8-6-0000-|
A|-6-8-8-6-0--0-6-8-8-6-0--0-6-8-8-6-0--0-6-8-8-6-0000-|
D|-6-8-8-6-0--0-6-8-8-6-0--0-6-8-8-6-0--0-6-8-8-6-0000-| x2
PM....................................................
[ Tab from: http://www.guitartabs.cc/tabs/t/thornley/come_again_tab_ver_3.html ]
PRE-CHORUS                                    
The second part's hard to get, and i'm pretty sure this is wrong, but it's how i
like to play it. With the right rhythm, it sounds pretty good.
e|---------------------------------------------------14--12-----11-(repeat)|
B|-------------------------------------------------11--11---11-------------|
G|-------------------------------------------------------------------------|
D|-6-6-6-0-6--6-6-6-0-6--6-6-6-0-6-6-0-6-6-0-6--0--------------------------|
A|-6-6-6-0-6--6-6-6-0-6--6-6-6-0-6-6-0-6-6-0-6--0--------------------------|
D|-6-6-6-0-6--6-6-6-0-6--6-6-6-0-6-6-0-6-6-0-6--0--------------------------|

CHORUS 2
e|---------------------------------------------------------------|
B|---------------------------------------------------------------|
G|-------------------------------66666666666666------------------|
D|-44444444444444-11111111111111-66666666666666-66666666666666---|
A|-44444444444444-11111111111111-44444444444444-66666666666666---|
D|-44444444444444-11111111111111----------------66666666666666---|

e|---------------------------------------------------------------|
B|---------------------------------------------------------------|
G|-------------------------------66666666666666------------------|
D|-44444444444444-11111111111111-66666666666666-66666666666668~--|
A|-44444444444444-11111111111111-44444444444444-66666666666668~--|
D|-44444444444444-11111111111111----------------66666666666668~--|

INTRO 1
e|-----------------------------------------------------|
B|-----------------------------------------------------|
G|-----------------------------------------------------|
D|-6-8-8-6-0--0-6-8-8-6-0--0-6-8-8-6-0--0-6-8-8-6-0000-|
A|-6-8-8-6-0--0-6-8-8-6-0--0-6-8-8-6-0--0-6-8-8-6-0000-|
D|-6-8-8-6-0--0-6-8-8-6-0--0-6-8-8-6-0--0-6-8-8-6-0000-| x2 (i think)
PM                                                ....

BRIDGE (this part was really hard to pick up too- again, this part isn't exact,
but it's how i like to play it)
e|---14--12--10--12------------------------|
B|-11--11--11--11----(repeat til chorus)---|
G|-----------------------------------------|
D|-----------------------------------------|
A|-----------------------------------------|
D|-----------------------------------------|

CHORUS 2
e|---------------------------------------------------------------|
B|---------------------------------------------------------------|
G|-------------------------------66666666666666------------------|
D|-44444444444444-11111111111111-66666666666666-66666666666666---|
A|-44444444444444-11111111111111-44444444444444-66666666666666---|
D|-44444444444444-11111111111111----------------66666666666666---|

e|---------------------------------------------------------------|
B|---------------------------------------------------------------|
G|-------------------------------66666666666666------------------|
D|-44444444444444-11111111111111-66666666666666-66666666666666---|
A|-44444444444444-11111111111111-44444444444444-66666666666666---|
D|-44444444444444-11111111111111----------------66666666666666---|

e|---------------------------------------------------------------|
B|---------------------------------------------------------------|
G|-------------------------------66666666666666------------------|
D|-44444444444444-11111111111111-66666666666666-66666666666666---|
A|-44444444444444-11111111111111-44444444444444-66666666666666---|
D|-44444444444444-11111111111111----------------66666666666666---|

e|---------------------------------------------------------------|
B|---------------------------------------------------------------|
G|-------------------------------66666666666666------------------|
D|-44444444444444-11111111111111-66666666666666-66666666666668~--|
A|-44444444444444-11111111111111-44444444444444-66666666666668~--|
D|-44444444444444-11111111111111----------------66666666666668~--|

OUTRO
e|-----------------------------------------------------|
B|-----------------------------------------------------|
G|-----------------------------------------------------|
D|-6-8-8-6-0--0-6-8-8-6-0--0-6-8-8-6-0--0-6-8-8-6-0000-|
A|-6-8-8-6-0--0-6-8-8-6-0--0-6-8-8-6-0--0-6-8-8-6-0000-|
D|-6-8-8-6-0--0-6-8-8-6-0--0-6-8-8-6-0--0-6-8-8-6-0000-| x1
PM                                                ....

| /  slide up
| \  slide down
| h  hammer-on
| p  pull-off
| ~  vibrato
| +  harmonic
| x  Mute note
===========================================================================
Comments