Thornley - Come Again Chords & Tabs

 

Come Again Chords & Tabs

Thornley Chords & Tabs

Version: 2 Type: Tab 0 ratings
1 star 2 stars 3 stars 4 stars 5 stars
comments

Come Again Tab

   
============================================================================
----------------------------------------------------------------------------
			     COME AGAIN (INTRO) - Thornley
----------------------------------------------------------------------------
Tabbed by: Rick G. (XKamonX)
Email: ss4kamon@hotmail.com

Tuning: Drop D  step down (eb Bb Gb Db Ab Db)

This is my first tab, here's the intro of Come Again. This goes up to the 
pre-chorus. Have fun playing! I will try to tab the whole song one day..
[ Tab from: http://www.guitartabs.cc/tabs/t/thornley/come_again_tab_ver_2.html ]
        W/ Distortion
eb|---------------------------------------------------------------------| X2
Bb|---------------------------------------------------------------------| X2
Gb|---------------------------------------------------------------------| X2
Db|-----7-9-9-7-0-----0-7-9-9-7-0-----0-7-9-9-7-0-----0-7-9-9-7-xxxx----| X2
Ab|-----7-9-9-7-0-----0-7-9-9-7-0-----0-7-9-9-7-0-----0-7-9-9-7-xxxx----| X2
Db|-----7-9-9-7-0-----0-7-9-9-7-0-----0-7-9-9-7-0-----0-7-9-9-7-xxxx----| X2

        W/ Distortion
eb|---------------------------------------------------------------------| X4
Bb|---------------------------------------------------------------------| X4
Gb|---------------------------------------------------------------------| X4
Db|-----7-9-9-7-0-----0-7-9-9-7-0-----0-7-9-9-7-0-----0-7-9-9-7-xxxx----| X4
Ab|-----7-9-9-7-0-----0-7-9-9-7-0-----0-7-9-9-7-0-----0-7-9-9-7-xxxx----| X4
Db|-----7-9-9-7-0-----0-7-9-9-7-0-----0-7-9-9-7-0-----0-7-9-9-7-xxxx----| X4
	(pm)........................................................


| /  slide up
| \  slide down
| h  hammer-on
| p  pull-off
| ~  vibrato
| +  harmonic
| x  Mute note
============================================================================
Comments