Thornley - Come Again Chords & Tabs

 

Come Again Chords & Tabs

Thornley Chords & Tabs

Version: 1 Type: Tab 0 ratings
1 star 2 stars 3 stars 4 stars 5 stars
comments

Come Again Tab

   
Song: Come Again
Artist: Thornley
Submitted by: Aaron G.

Intro/Verse:
Play as much as needed...
e)----------------------------------------------------|
B)----------------------------------------------------|
G)----------------------------------------------------|
D)4-6-6-6-4--4-6-6-6-4--4-6-6-6-4--4-6-6-6-4--2-2-2-2-|
A)4-6-6-6-4--4-6-6-6-4--4-6-6-6-4--4-6-6-6-4--2-2-2-2-|
D)4-6-6-6-4--4-6-6-6-4--4-6-6-6-4--4-6-6-6-4--2-2-2-2-|
[ Tab from: http://www.guitartabs.cc/tabs/t/thornley/come_again_tab.html ]
Pre-Chorus:
e)----------------6-6-6-6-6-6-6-6-6-|
B)---------------0-4-6-0-4-6-0-4-6--|
G)----------------------------------|
D)9994-9994-9994--------------------|
A)9994-9994-9994--------------------|
D)9994-9994-9994--------------------|

Chorus:
e)---------------------------------------------------|
B)---------------------------------------------------|
G)---------------------------------------------------|
D)1616161616161616-1313131313131313-1111111111111111-|
A)1616161616161616-1313131313131313-1111111111111111-|
D)1616161616161616-1313131313131313-1111111111111111-|


That's It!
Enjoy!
Comments