Thornley - Clever Chords & Tabs

 

Clever Chords & Tabs

Thornley Chords & Tabs

Version: 2 Type: Tab 0 ratings
1 star 2 stars 3 stars 4 stars 5 stars
comments

Clever Tab

   
-------------------------------------------------------------------------------
			     cLEVER - Thornley
-------------------------------------------------------------------------------
  Tabbed by:Brian Riley	
  Email:

  Tuning:B F# B D# E G#	

  The timing is easy once you listen to the song a couple times.
  Thornley Rocks!!
[ Tab from: http://www.guitartabs.cc/tabs/t/thornley/clever_tab_ver_2.html ]
    INTRO (clean)
  G|-----------10------12--10------10-------|----------------------------------|  
  E|-------13------13----------13-----------|----------------------------------|
  D|---11-----------------------------------|----------------------------------|	
  B|----------------------------------x 2---|----------------------------------|
  F|----------------------------------------|----------------------------------|
  B|----------------------------------------|----------------------------------|
    
    
    RIFF 1                 2nd time     RIFF 1    RIFF 2
  G|----------------------|------------|---------|-----------------------------|  
  E|----------------X-2---|------------|-----X 1-|-----------------------------|
  D|----------------------|------------|---------|-----------------------------|	
  B|----------------------|------------|---------|-----------------------------|
  F|--77-7-9-10--33-5-0---|--------3b--|---------|--77-7-9-10--33-0-5----------|
  B|--77-7-9-10--33-5-0---|---33-3-----|---------|--77-7-9-10--33-0-5----------|
    
    
   { VERSE	{} REPEAT X 2		     RIFF 1     2nd time
  G|----------------------------------------|----------|------------|----------|  
  E|-----------------------------------X 4--|-----X 2--|------------|----------|
  D|-----1--------1------2--------4---------|----------|------------|----------|	
  B|----------------------------------------|----------|------------|----------|
  F|----------------------------------------|----------|--------3b--|----------|
  B|-22-----0202-----33-----0505------------|----------|---33-3-----|----------|
   
   
    RIFF 3	  RIFF 2   }  INTERLUDE	      VERSE (different distortion)   
  G|-------------|----------|----------------|---------------------------------|  
  E|-------------|-----X 1--|------------X 2-|--------------------------X 2----|
  D|-------------|----------|-5---7----------|---------------------------------|	
  B|-------------|----------|-5---7---7---0--|---------------------------------|
  F|--77--33--0--|----------|-3---5---7---0--|---------------------------------|
  B|--77--33--0--|----------|---------7---0--|---------------------------------|
   
              RIFF 1		  RIFF 3      RIFF 2     RIFF 1     2nd time
  G|---------|--------|----------|-----------|----------|----------|-----------|  
  E|---------|----X 1-|----------|------X 1--|------X 1-|-----X 2--|-----------|
  D|---------|--------|----------|-----------|----------|----------|-----------|	
  B|---------|--------|----------|-----------|----------|----------|-----------|
  F|--33--0--|--------|-------3b-|-----------|----------|----------|------3b---|
  B|--33--0--|--------|--33-3----|-----------|----------|----------|-33-3------|
   
    RIFF 3     RIFF 2
  G|----------|---------|------------------------------------------------------|  
  E|-----X 1--|----X 1--|------------------------------------------------------|
  D|----------|---------|------------------------------------------------------|	
  B|----------|---------|------------------------------------------------------|
  F|----------|---------|------------------------------------------------------|
  B|----------|---------|------------------------------------------------------|
Comments