Thornley - All Comes Out In The Wash Chords & Tabs

 

All Comes Out In The Wash Chords & Tabs

Thornley Chords & Tabs

Version: 1 Type: Tab 0 ratings
1 star 2 stars 3 stars 4 stars 5 stars
comments

All Comes Out In The Wash Tab

   
-------------------------------------------------------------------------------
			     All Comes Out in the Wash - Thornley
-------------------------------------------------------------------------------
Tabbed by:Me
Email:Maybe I should get one
Tuning: I bet that its not in standard tuning but since I only have the intro it doesn't 
matter if you play it in standard.
[ Tab from: http://www.guitartabs.cc/tabs/t/thornley/all_comes_out_in_the_wash_tab.html ]
e|--------------------9-----10---------------11~~----------------------------------|
B|-------10--------10---10-------9--------10---------------------------------------|
G|----11----11---9-------------9---9---11------------------------------------------|
D|-11------------------------9-----------------------------------------------------|
A|---------------------------------------------------------------------------------|
E|---------------------------------------------------------------------------------|


| /  slide up
| \  slide down
| h  hammer-on
| p  pull-off
| ~  hold note
| +  harmonic
| x  Mute note
===============================================================================
Comments