Thompson Twins - Hold Me Now Chords & Tabs

 

Hold Me Now Chords & Tabs

Thompson Twins Chords & Tabs

Version: 2 Type: Bass Tab 0 ratings
1 star 2 stars 3 stars 4 stars 5 stars
comments

Hold Me Now Bass Tab

   
THE THOMPSON TWINS - "Hold Me Now" - Bass Tab

Common Time(4/4)
Standard Tuning(EADG)


INTRO:
        (x8)
|-----------|
|*---------*|
|*-r-e-s-t-*|
|-----------|
   1 2 3 4


VERSES 1 & 2/CHORUS/END:
|----------|-----------------|---------|-----------|---------|
|*-.-.-.---|-----------------|-.-.-.---|-----------|-.-.-.---|
|*-5-5-5-r-|---.---.-------0-|-2-2-2-r-|-r-r-r-r-2-|-3-3-3-r-|
|----------|-r-2-r-5-r-r-0---|---------|-----------|---------|
   1 2 3 4   1 & 2 & 3 4 & a   1 2 3 4   1 2 3 4 &   1 2 3 4
                                           
|-----------------|---------|------------------|
|-----------------|---------|-----------------*|(x2 Verses/Chorus)
|---.---.---------|-.-.-.---|---.-------------*|(to fade-out End)
|-r-0-r-3-r-r-0-3-|-5-5-5-r-|-r-5-7h5-r-5-7h5--|
  1 & 2 & 3 4 & a   1 2 3 4   1 & 2 & 3 & 4 &


MIDDLE:
                  (x4)
|----------|----------|
|*---------|---------*|
|*-1-------|-3-------*|
|----------|----------|
   1 2 3 4   1 2 3 4

[ Tab from: http://www.guitartabs.cc/tabs/t/thompson_twins/hold_me_now_btab_ver_2.html ]
VERSE 3:
|---------|---------|-----------|-----------------|---------|
|---------|---------|---------4-|-7---4-9---4-7-4-|-.-.-.---|
|-r-e-s-t-|-r-e-s-t-|-r-r-r-r---|-----------------|-3-3-3-r-|
|---------|---------|-----------|-----------------|---------|
  1 2 3 4   1 2 3 4   1 2 3 4 &   1 & 2 & 3 & 4 &   1 2 3 4

|-----------------|---------|-----------------|
|-----------------|---------|-----------------|
|---.---.---------|-.-.-.---|---.-------------|
|-r-0-r-3-r-r-0-3-|-5-5-5-r-|-r-5-7h5-r-5-7h5-|
  1 & 2 & 3 4 & a   1 2 3 4   1 & 2 & 3 & 4 &

|---------|-----------------|---------|-----------|---------|
|-.-.-.---|-----------------|-.-.-.---|-----------|-.-.-.---|
|-5-5-5-r-|---.---.-------0-|-2-2-2-r-|-r-r-r-r-2-|-3-3-3-r-|
|---------|-r-2-r-5-r-r-0---|---------|-----------|---------|
  1 2 3 4   1 & 2 & 3 4 & a   1 2 3 4   1 2 3 4 &   1 2 3 4
                                   
|-----------------|---------|-----------------|
|-----------------|---------|-----------------|
|---.---.---------|-.-.-.---|---.-------------|
|-r-0-r-3-r-r-0-3-|-5-5-5-r-|-r-5-7h5-r-5-7h5-|
  1 & 2 & 3 4 & a   1 2 3 4   1 & 2 & 3 & 4 &


By: Johari Taylor
E-mail: viking@powerup.com.au
More Bass Tabs: http://www.powerup.com.au/~viking/basstab.htm
Comments