Thom Yorke - And It Rained All Night Chords & Tabs

 

And It Rained All Night Chords & Tabs

Thom Yorke Chords & Tabs

Version: 2 Type: Bass Tab 0 ratings
1 star 2 stars 3 stars 4 stars 5 stars
comments

And It Rained All Night Bass Tab

-------------------------------------------------------------------------------
                             And It Rained All Night - Thom Yorke
-------------------------------------------------------------------------------

[ Tab from: http://www.guitartabs.cc/tabs/t/thom_yorke/and_it_rained_all_night_btab_ver_2.html ]
G|--6-6-6-5-----6-5-6-6-----4----4-4-----4-----4-4-----------------------|
D|-----------------------------6------------6----------------------------|
A|-----------------------------------------------------------------------|
E|-----------4-----------4------------4------------4---------------------|

G|--4-4-3----4-4-3-----4----4-4-----4-----4-4----------------------------|
D|------------------------6------------6---------------------------------|
A|-----------------------------------------------------------------------|
E|--------4--------4-------------4-------------4-------------------------|
Comments