This Providence - My Beautiful Rescue Chords & Tabs

 

My Beautiful Rescue Chords & Tabs

This Providence Chords & Tabs

Version: 1 Type: Bass Tab

My Beautiful Rescue Bass Tab

This is the bass part to My Beautiful Rescue, I learned it by ear but I'm usually pretty 
good at that. So I would say it's at least 98% correct. And Sorry the timing and rhythm 
are really tricky on this song so it was to hard to put down on the tab, so your 
going to have to kind of piece it together as far as when a certain bass riff comes in.


2nd Verse (When Bass Comes in)
g---------  |---------------------------------------------------|  Repeat x2 except
d----02    |- --------------0-2-0-------------------2-5-2-------|              for the riff
a 0 3---        |------0--------------3----0-0-3-------------3--|            at the start.
e--------- |--1-1-----------------------------------------------|

g-------------------------------------------------------|  This is the 2nd half
d---------2-5--2-3-2-0------------2-5--2-3-2-0----------|   of verse two, it is a
a-----3--------------------0-0--3-----------------------| x2  bass part of the
e 1-1---------------------------------------------------|  same verse.
[ Tab from: http://www.guitartabs.cc/tabs/t/this_providence/my_beautiful_rescue_btab.html ]
                                                        You play this 1 time all the way through
g-----------------------------------------------------------|  But the second time the last half 
d-------0-0-0-0-2-3-----------------------------------------|               switches to this one
a 0-0-----------------------------                       <--|
e-----------------------------------------------------------|
Chorus
g---------------------------------------------------|
d-----------------------------------5---------------|
a-0-0-0-00--------------3-3-3---3-2-2-2-3-2---------|
e--------------1-1-1-1-3----------------------------|
 Bridge
g---------------|-----------| This is similar to the second verse, once all the way
d-0-0-0-2-3--3--|----3/5----|  through. But the second time the last half switches
a---------------|--3-----2--| to this one
e---------------|-----------|
                                                                                       |
                                                                                       V

g---------------------------------------------|
d-0-0-0-2-3--3---5-5-5-5-5-5-5-5--------------|
a---------------------------------------------|
e---------------------------------------------|

Like I said, not exact but close enough to get a feel for it. Sorry if it's 
complicated to understand.

Thanks