This Girl - Bling Bling Bling Chords & Tabs

 

Bling Bling Bling Chords & Tabs

This Girl Chords & Tabs

Version: 1 Type: Tab 0 ratings
1 star 2 stars 3 stars 4 stars 5 stars
comments

Bling Bling Bling Tab

----------------------------------------------------------------------------
                      BLING BLING BLING by This Girl
----------------------------------------------------------------------------
Tabbed by: tup
Email:king_elite@hotmail.com

Dropped D Tuning

Very cool track from one of Britain's best bands

 Intro
E|--------------------------------------------------------------------------|
B|---7---7---7---7---7---7---7---7------------------------------------------|
G|---5---5---5---5---5---5---5---5------------------------------------------|
D|---4---4---4---4---4---4---4---4----------------------------x 1-----------|
A|--------------------------------------------------------------------------|
D|-----0---0---0---0---0---0---0---0----------------------------------------|


  Heavy Distortion
E|--------------------------------------------------------------------------|
B|---7---7---7---7---7---7---7-7-7-7-7-7-7----------------------------------|
G|---5---5---5---5---5---5---5-5-5-5-5-5-5----------------------------------|
D|---4-0-4-0-4-0-4-0-4-0-4-0-6-6-6-6-6-6-6--------------------x 4-----------|
A|-----0---0---0---0---0---0------------------------------------------------|
D|-----0---0---0---0---0---0------------------------------------------------|


  Verse
E|--------------------------------------------------------------------------|
B|-----7-7---7-----7-7---7-----7-7---7--7-7-7-7-7-7-7-7---------------------|
G|-----5-5---5-----5-5---5-----5-5---5--5-5-5-5-5-5-5-5---------------------|
D|-----4-4---4-----4-4---4-----4-4---4--6-6-6-6-6-6-6-6---------------------|
A|--------------------------------------------------------------------------|
D|---0-----0-----0-----0-----0-----0----------------------------------------|


  Pre-Chorus
E|--------------------------------------------------------------------------|
B|--------------------------------------------------------------------------|
G|---7-5--------------------------------------------------------------------|
D|-------7-5-4b5r4----------------------------------------------------------|
A|--------------------------------------------------------------------------|
D|--------------------------------------------------------------------------|

[ Tab from: http://www.guitartabs.cc/tabs/t/this_girl/bling_bling_bling_tab.html ]
  Chorus
E|--------------------------------------------------------------------------|
B|------------------------------------------33333--------33333--------------|
G|---7777777777777777-3333333333333333------22222--------22222--------------|
D|---7777777777777777-3333333333333333-3333-00000---3333-00000--------------|
A|---5555555555555555-1111111111111111-3333-00000---3333-00000--------------|
D|-------------------------------------3333-00000---3333-00000--------------|


  Solo Bit
E|--------------------------------------------------------------------------|
B|--------------------------------------------------------------------------|
G|---7-5-4-5-4---4---4------------------------------------------------------|
D|-------------7---7---7-6~---7-5-4-5-4---4---4---------------x 4-----------|
A|--------------------------------------7---7---7-5~------------------------|
D|--------------------------------------------------------------------------|


  After the bit above is played 2 times, a second guitar comes in with this

E|---10-8-7-8-7----7----7---------------------------------------------------|
B|--------------10---10---10-9~---10-8-7-8-7---7---7------------------------|
G|-------------------------------------------9---9---9-7~-------------------|
D|------------------------------------------------------------x 2-----------|
A|--------------------------------------------------------------------------|
D|--------------------------------------------------------------------------|


  Play this fill once, then back to the verse
E|--------------------------------------------------------------------------|
B|-----7-7---7-----7-7---7-----7-7---7--7-----------------------------------|
G|-----5-5---5-----5-5---5-----5-5---5--5-----------------------------------|
D|-----4-4---4-----4-4---4-----4-4---4--4-----------------------------------|
A|--------------------------------------------------------------------------|
D|---0-----0-----0-----0-----0-----0----------------------------------------|


  Outro
E|--------------------------------------------------------------------------|
B|--------------------------------------------------------------------------|
G|---7-7-5-5------------------------7-7-5-5-8-8-8-8-8-8-8-8-----------------|
D|-----------7-7-5-5-4b5r4---(x3)-----------------------------x 2-----------|
A|--------------------------------------------------------------------------|
D|--------------------------------------------------------------------------|


E|--------------------------------------------------------------------------|
B|--------------------------------------------------------------------------|
G|---7-7-5-5----------------------------------------------------------------|
D|-----------7-7-5-5-4b5r4---(x3)---7-5-8~----------------------------------|
A|----------------------------------7-5-8~----------------------------------|
D|----------------------------------7-5-8~----------------------------------|


Song Structure
Intro x 1
Verse x 4
Pre-Chorus x 1
Chorus x 2
Solo x 1
Fill x 1
Verse x 4
Chorus x 4
Outro x 1


END.
Comments