Thirteen Senses - Do No Wrong Chords & Tabs

 

Do No Wrong Chords & Tabs

Thirteen Senses Chords & Tabs

Version: 1 Type: Tab 0 ratings
1 star 2 stars 3 stars 4 stars 5 stars
comments

Do No Wrong Tab

Do No Wrong By Thirteen Senses

Tabbed By Jamie


Verse:

e|--------------------------------------------------------------------------|
B|-----10-------------10-----------------8----------------8-----------------|
G|--------10-----10-------10------10---------9-------9-------9--------9-----|
D|-----------12---------------12-----------------10--------------10---------|
A|--------------------------------------------------------------------------|
E|--------------------------------------------------------------------------|

e|--------------------------------------------------------------------------|
B|-----6---------------6------------------5--------------5------------------|
G|--------7-------7-------7-------7----------5-------5------5----5----------|
D|------------8---------------8-----------------7--------------7------------|
A|--------------------------------------------------------------------------|
E|--------------------------------------------------------------------------|


Chorus:
[ Tab from: http://www.guitartabs.cc/tabs/t/thirteen_senses/do_no_wrong_tab.html ]
e|--------------------------------------------------------------------------|
B|--------------------------------------------------------------------------|
G|--------------------------------------------------------------------------|
D|--1212121212121212--1010101010101010--88888888--77777777------------------|
A|--1212121212121212--1010101010101010--88888888--77777777------------------|
E|--1010101010101010--8-8-8-8-8-8-8-8---66666666--55555555------------------|


Solo:

e|--------------------------------------------------------------------------|
B|--------------------------------------------------------------------------|
G|--1212121212121212141414141414141416161616161616161818181818181818--x2----|
D|--------------------------------------------------------------------------|
A|--------------------------------------------------------------------------|
E|--------------------------------------------------------------------------|


Piano Outro

e|----13-----17-13-12---17-12-10--17-10-8---13------17-13-12--17-12-10------|
B|--------------------------------------------------------------------------|
G|--------------------------------------------------------------------------|
D|--------------------------------------------------------------------------|
A|--------------------------------------------------------------------------|
E|--------------------------------------------------------------------------|
Comments