Thirsty Merc - In The Summertime Chords & Tabs

 

In The Summertime Chords & Tabs

Thirsty Merc Chords & Tabs

Version: 2 Type: Tab 0 ratings
1 star 2 stars 3 stars 4 stars 5 stars
comments

In The Summertime Tab

THIRSTY MERC - In The Summertime
Submitted by Mark Simons



The tabs I've found for this song aren't quite right. I've played this version along
with the single HEAPS! And it sounds perfect. I may have missed something though, so
feel free to make corrections, but just credit my work please.

Cheers! Mark.


Intro:

e----------------------|
B----------------------|
G------6/77777-7-------|
D-2-2--6/77777-7-------|  x 4
A-2-2--4/55555-5-7-5---|
E-0-0------------------|


Verse:

e----------------------------|  
B----------------------------|  
G-----------------------7/9--|  
D-2-22---6---7---8---9--7/9--|  at end of each 4 measures don't
A-2-22---6---7---8---9--5/7--|	 play the last two chords
E-0-00---4-0-5-0-6-0-7--x-x--|


Pre-Chorus:

e---------------------------|
B---------------------------|
G---------------------------|
D-44xx44444/6/77-xx777777---|
A-44xx44444/6/77-xx777555---|
E-22xx22222/4/55-xx555555---|
    ^
    go crazy with the pick scraping!!

[ Tab from: http://www.guitartabs.cc/tabs/t/thirsty_merc/in_the_summertime_tab_ver_2.html ]
e------------------------------|
B------------------------------|
G------------------------------|
D-44xx44444----7777777-9-------|
A-44xx44444----7777777-9-------|
E-22xx22222----7555555-7-------|
   


Chorus:

e---------------------------------------|
B---------------------------------------|
G--------666666-------------------------|
D-222222-666666--77777---222222---------|
A-222222-444444--77777---222222---------|
E-000000---------55555---000000---------| }
					            } x 2
e---------------------------------------| }
B---------------------------------------|
G---------------------------------------|
D-44444444/6/777777--999999-------------|
A-44444444/6/777777--999999-------------|
E-22222222/4/555555--777777-------------|



Back to Intro
Verse x 2
Pre-Chorus
Chorus
Intro (with solo over top)


Bridge:

e-----------------------------------------------|
B-----------------------------------------------|
G-----------------------------------------------|
D-4~~~~~7~~~~~--<------------------>-7777777-9--|
A-4~~~~~7~~~~~--<(play 2x)---(then)>-7777777-9--|
E-2~~~~~5~~~~~--<------------------>-5555555-7--|
  
  ^ (induce slight feedback)	       ^ (build to crescendo)


Drum Fill
Chorus x 2
Play intro Riff once to end



There you have it! Easy as!
Comments