Thirsty Merc - In The Summertime Chords & Tabs

 

In The Summertime Chords & Tabs

Thirsty Merc Chords & Tabs

Version: 1 Type: Tab 0 ratings
1 star 2 stars 3 stars 4 stars 5 stars
comments

In The Summertime Tab

   
In The Summertime
Tabbed by Simon Pym

^=bend
/=slide
x-mute

intro
E|------------------|
B|------------------|
G|---------4/555555-|
D|-3-3xx---4/555555-|  x4
A|-3-3xx---2/333333-|
E|-1-1xx------------|

Verse (guitar1)
E|-------------------|
B|-------------------|
G|-------------------|
D|-------------------|
A|---------------5h7-|
E|-0-004-005-567-----|

Verse (Guitar2 comes in after guitar1 plays verse 4 times)
E|--------------|
B|-------22-----|
G|-------22--44-|
D|1-111--22--44-|
A|1-111--00--22-|
E|0-000---------|

Pre-chorus part A		part B
E|--------------------|---------------------|
B|------------2x--2-22|---------------2222--|
G|33x--3-33---2x--2-22|---33x--3-33---2222-4|
D|44x--4-44---2x--2-22|---44x--4-44---2222-4|
A|44x--4-44---0x--0-00|---44x--4-44---0000-2|
E|22x--2-22-----------|---22x--2-22---------|

Chorus
E|-----------------------|
B|------------2222-------|
G|1111--6666--2222--1111-|
D|2222--6666--2222--2222-|
A|2222--4444--0000--2222-|
E|0000--------------0000-|
[ Tab from: http://www.guitartabs.cc/tabs/t/thirsty_merc/in_the_summertime_tab.html ]
Solo
E|-15^-13--17^-16-13--15p13-----15^-13--17^-16-12-13^-12--|
B|--------------------------------------------------------|
G|--------------------------------------------------------|
D|--------------------------------------------------------|
A|--------------------------------------------------------|
E|--------------------------------------------------------|

E|15^-13--17^-16-13--15p13-----15^-15^-15-13-12-----------|
B|----------------------------------------------15p14-12^-|
G|--------------------------------------------------------|
D|--------------------------------------------------------|
A|--------------------------------------------------------|
E|--------------------------------------------------------|

Last Pre-Chorus
E|---------------------------|
B|------2-----------222222---|
G|3-----2-----3-----222222-4-|
D|4-----2-----4-----222222-4-|
A|4-----0-----4-----000000-2-|
E|2-----------2--------------|

Song Order:	
Intro 				x4
Verse (guitar1)			x12 
Verse (guitar2)			x8
Pre-Chorus (parts A and B)	x2
Chorus:
Chorus				x1
Pre-Chorus (part B)		x1
Chorus				x1
Pre-Chorus (part B)		x1

Verse					x4
Pre-chorus (parts A and B)	x1
Chorus
Solo
Last Pre-verse
Chorus				x2
Pre-Chorus (part B)		x2
Outro=intro				x1

Any mistakes or corrections please mail me @: simonpym@tpg.com
That's about it
Enjoy!
Comments