Thirsty Merc - In The Summertime Chords & Tabs

 

In The Summertime Chords & Tabs

Thirsty Merc Chords & Tabs

Version: 1 Type: Bass Tab

In The Summertime Bass Tab

THIRSTY MERC - In The Summertime

soccerdude_7134@hotmail.com

Based on the guitar tab.

Intro:
G----------------------|
D----------------------|x 4
A------4/55555-5-7-5---|
E-0-0------------------|


Verse:
G----------------------------|  
D----------------------------|  at end of each 4 measures don't
A-----------------------5/7--|	 play the last two notes
E-0-00---4-0-5-0-6-0-7-------|

[ Tab from: http://www.guitartabs.cc/tabs/t/thirsty_merc/in_the_summertime_btab.html ]
Pre-Chorus:
G---------------------------|
D---------------------------|
A---------------------------|
E-22xx22222/4/55-xx555555---|
  
G------------------------------|
D------------------------------|
A------------------------------|
E-22xx22222----7555555-7-------|
   
Chorus:
G---------------------------------------|
D---------------------------------------|
A--------444444-------------------------|
E-000000---------55555---000000---------| 
					   x 2

G---------------------------------------|
D---------------------------------------|
A---------------------------------------|
E-22222222/4/555555--777777-------------|

Back to Intro
Verse x 2
Pre-Chorus
Chorus
Intro (with solo over top)


Bridge:
G-----------------------------------------------|
D-----------------------------------------------|
A-----------------------------------------------|
E-2-----5----------------------------5555555-7--|
  
  ^ (induce slight feedback)	       ^ (build to crescendo)


Drum Fill
Chorus x 2
Play intro Riff once to end