Thirsty Merc - Emancipate Myself Chords & Tabs

 

Emancipate Myself Chords & Tabs

Thirsty Merc Chords & Tabs

Version: 1 Type: Bass Tab

Emancipate Myself Bass Tab

----------------------------------------------------------------------------
		     Emancipate Myself - Thirsty Merc
----------------------------------------------------------------------------
soccerdude_7134@hotmail.com

Easy bass tab. Based on the guitar tab.

VERSES:
G|------------------------------------------------------------------|
D|------------------------------------------------------------------|
A|-7-7-7-7-6-6-6-6-5-5-5-5-4-4-4-4-3-3-3-3-3-3-3-3-7--7-7-7-7-7-7-7-|
E|------------------------------------------------------------------|
[ Tab from: http://www.guitartabs.cc/tabs/t/thirsty_merc/emancipate_myself_btab.html ]
1ST CHORUS:
G|---------------------------------------------------------------|
D|---------------------------------------------------------------|
A|---------------------------------------------------------------|
E|-0-0-0-0--0-0-0-0--2-2-2-2--2-2-2-2--5-5-5-5--7-7-7-7--8-------|

MAIN CHORUS:
G|-------------------------------------------------------------------------|
D|-------------------------------------------------------------------------|
A|-------------------------------------------------------------------------|
E|-0-0-0-0-0-0-0-0-2-2-2-2-2-2-2-2-5-5-5-5-7-7-7-7--8--8--8--8--8--8--8--8-|

BRIDGE:
G|--------------------------------|
D|--------------------------------|
A|--------------------------------|
E|-2----1---0-----2-----1---------|


Enjoy!