Third Try - Pins And Needles Chords & Tabs

 

Pins And Needles Chords & Tabs

Third Try Chords & Tabs

Version: 1 Type: Bass Tab 0 ratings
1 star 2 stars 3 stars 4 stars 5 stars
comments

Pins And Needles Bass Tab

Song:Pins and needles 
Band:Third Try
Album:Third Try EP 
By:Andrew Buckley
E-mail:Futureshooter69@hotmail.com
Comments:I love this band and would gladly marry a goat to become an american citizen to see them live.



Intro/verse
G:-----------------------------------------------------|
D:-----------------------------------------------------|
A:-----------------------------------------------------|
E:9-9---9-9-9-9--9-9--9-9-9--7-7---7-7-7-7--7-7--7-7-7-|

G:-----------------------------------------------------|
D:-----------------------------------------------------|
A:-----------------------------------------------------|  x6
E:6-6---6-6-6-6--6-6--6-6-6--2-2---2-2-2-2--2-2--2-2-2-|



Corus/ Part 1
G:-----------------------------------------------------|
D:-----------------------------------------------------|
A:-----------------------------------------------------|
E:9-9---9-9-9-9--9-9--9-9-9--7-7---7-7-7-7--7-7--7-7-7-|
[ Tab from: http://www.guitartabs.cc/tabs/t/third_try/pins_and_needles_btab.html ]
G:-----------------------------------------------------|
D:-----------------------------------------------------|
A:-----------------------------------------------------| x2
E:2-2---2-2-2-2--2-2--2-2-2--4-4---4-4-4-4--4-4--4-4-4-|

Corus/ Part 2
G:-----------------------------------------------------|
D:-----------------------------------------------------|
A:-----------------------------------------------------|
E:9-9---9-9-9-9--9-9--9-9-9--7-7---7-7-7-7--7-7--7-7-7-|

G:-----------------------------------------------------|
D:---------------------------------------4-2-----------|
A:-------------------------------------------4-2-0-----| x2 
E:2-2---2-2-2-2--2-2--2-2-2--2--2--2-2-2---------------|

 
Intro/verse x4
Corus/part1 x2
Corus/part2 x2
Intro/verse x4
corus/part1 x2
corus/part2 x2
Corus/part2 x2 again but palm mute and no bass solo, end on E:9


Questions, Comments, Proposals of marrage, E-mail at top of page please! 


Thrid try are a kick ass band Hailing from Temecula CA, listen to the music first by searching
 for them on napster, Viva la resistance!







Comments