Third Try - Im Outside Chords & Tabs

 

Im Outside Chords & Tabs

Third Try Chords & Tabs

Version: 2 Type: Tab 0 ratings
1 star 2 stars 3 stars 4 stars 5 stars
comments

Im Outside Tab

Hey, this is a pretty good song, so I tabbed it.  This is my first tab so dont
get mad if some parts are wrong. This is the first main parts you can listen to
the song for the whole thing (its pretty easy).
   
Intro play 2 times 
e|-----------------------------------------------------------------------|
B|-----------------------------------------------------------------------|
G|-----------------------------------------------------------------------|
D|--5---5---5---5--------------------------------------------------------|
A|3---3---3---3------7---7---7---7----3---3---3---3------6---6---6---6---|
E|----------------5----5---5---5----1---1---1---1------4---4--4---4------|
There is a short pause after some of the parts above listen to the song
to find out where they are


e|---------------------------------------------------------------------------|
B|---------------------------------------------------------------------------|
G|---------------------------------------------------------------------------|
D|-5-5-5-5-5-5-5-5-----------------------------------------------------------|
A|-3-3-3-3-3-3-3-3--7-7-7-7-7-7-7-7--3-3-3-3-3-3-3-3--6-6-6-6--5-5-5-5-------|
E|------------------5-5-5-5-5-5-5-5--1-1-1-1-1-1-1-1--4-4-4-4--3-3-3-3-------|
Play twice 
then play again with palm mute
I was two lazy to do the rest, but the rest is based after these
main chords pretty much.
[ Tab from: http://www.guitartabs.cc/tabs/t/third_try/im_outside_tab_ver_2.html ]
Comments