Third Try - Im Outside Chords & Tabs

 

Im Outside Chords & Tabs

Third Try Chords & Tabs

Version: 1 Type: Tab 0 ratings
1 star 2 stars 3 stars 4 stars 5 stars
comments

Im Outside Tab

Song: I'm outside
Band: Third try
Tabbed by: ~MizOOre





Intro:
e---------------------------------------------------------|
B---------------------------------------------------------|
G---------------------------------------------------------|
D--5---5--5---5--2---2--2---2-----------------------------|
A-3---3--3---3--0---0--0---0---3---3--3---3--6---6--6---6-|
E-----------------------------1---1--1---1--4---4--4---4--|


Part 2
e------------------------------|
B------------------------------|
G-5---7------9-9---13----------|
D-------7----------------------|
A-3---5------7-8---11----------|
E-------5----------------------|

The next part is the same but 8th notes and you slide the last chord down 
one fret

(before he starts singing)
e---------------|
B---------------|
G---------------|
D--5---5--5---5-|
A-3---3--3---3--|
E---------------|
[ Tab from: http://www.guitartabs.cc/tabs/t/third_try/im_outside_tab.html ]
Part3
This is when he's singing (it's all palmed 8th notes)
e--------------------|
B--------------------|
G--------------------|
D-5---2--------------|
A-3---0---3---6-5----|
E---------1---4-3----|



part 4 (and what about the night...)
It's all 8th notes
e-------------------|-------------------|
B-------------------|-------------------|
G-------------------|-------------------|
D-5---2-------------|-5---2-------------|
A-3---0---3----5----|-3---0---3----5-6--|
E---------1----3----|---------1----3-4--|


Part5 (in two, 'cause me, and you...)
all palmed 8th notes and while one guitar does this another does part 4 
palmed
e-------------------|
B-------------------|
G-------------------|
D-10----------------|
A---10--------------|
E-------------------|

Then it goes back to part2

Then it's the intro while he's singing and the second time andother guitar 
does part2

then it goes back to part 4 and so on...i'm sure if you're not a retard you 
can figure out
the rest 




Comments